Fleetwood Mac - Worried Dream Chords & Tabs

 

Worried Dream Chords & Tabs

Fleetwood Mac Chords & Tabs

Version: 1 Type: Tab 0 ratings
1 star 2 stars 3 stars 4 stars 5 stars
comments

Worried Dream Tab

   
                                          Artist - Fleetwood Mac 
                                         ************************
                                          Song -  Worried Dream
                                         ***********************
                             Album - The Best Of Peter Green's Fleetwood Mac
                            *************************************************
                                          Tabbed By - Ayreon77
                                         **********************




VERSE 1
********
Gm                     Cm                 Gm
  Well, I feel so bad,    I wonder what's wrong with me
        Cm            Cm                            Gm
Well, I feel so bad,     I wonder what's wrong with me

00:34
[---------------------|-----------]
[-b-------------------|-----------]
[-5--------3--5--3----|--h-p-h-p--]
[-------5-----------5-|-3-5-3-5-3-]
[---------------------|-----------]
[---------------------|-----------]
             Dm
I think I'll call my baby
Cm                                  Gm
  Find out just what the matter can be

00:54          brp
[-------p----|-8--6---6--p---------------]
[-b-3--8-6-8-|------8---8-6---brp--------]
[-5----------|--------------7-5--3-------]
[------------|---------------------5-3---]
[------------|-------------------------5-]
[------------|---------------------------]


-------------------------------------------------------
VERSE 2
********
             Gm
Last night I dreamed about my baby
Cm                                         Gm
  I woke up and the tears were running all down my face

[--------------------|-------3--p----------]
[-b------6-3--p------|-----3---5-3-b-------]
[-5----------5-3-----|-3-5---------5-5-3---]
[----------------5-5-|-------------------5-]
[--------------------|---------------------]
[--------------------|---------------------]
            Cm
Now, when I woke up early this morning
01:29
[-----------8-10-----]
[------8-11------8~~~]
[----8---------------]
[-10-----------------]
[--------------------]
[--------------------]
    Cm                             Gm
The tears were running all down my face

[-6---s----------------3-]
[----5\3--brp-----h--3---]
[---------5--3---3-5-----]
[--------------5---------]
[------------------------]
[------------------------]
               Dm
You know I was dreaming
Cm                                  Gm
  That some other man was taking my place

[--------------|----------------|--------]
[-brp-----h--3-|-6-brp---h------|-brp----]
[-5--3---3-5---|---5--3---3-5-3-|-5--3---]
[------5-------|--------5-------|------5-]
[--------------|----------------|--------]
[--------------|----------------|--------]


-------------------------------------------------------
VERSE 3
********
          Gm
I said, I dreamed about you, baby
02:10
[-----3---3-|---6-8-10-8-6---6--p-------------]
[-b-3---6---|--x-----------8---8-6--brp----h--]
[-5---------|-x---------------------5--3--3-5-]
[-----------|---------------------------------]
[-----------|---------------------------------]
[-----------|---------------------------------]

Gm
  I dreamed you didn't want me 'round no more

[-----3-----------]
[-b-3---6-3-b-----]
[-5---------5-5-3-]
[-----------------]
[-----------------]
[-----------------]
          Cm
I said, I dreamed about you, baby
[ Tab from: http://www.guitartabs.cc/tabs/f/fleetwood_mac/worried_dream_tab.html ]
[-----------8-10-----]
[------8-11------8~~~]
[----8---------------]
[-10-----------------]
[--------------------]
[--------------------]
Cm                                      Gm
  You know I dreamed you didn't want me round no more 
  brp
[-8--6---6--h-p-s--|--------------3--p--------|-----3---]
[------8---6-8-6\5-|-brp--------3---6-3--p----|-b-3---6-]
[------------------|-5--3---3-5---------5-3---|-5-------]
[------------------|------5-----------------5-|---------]
[------------------|--------------------------|---------]
[------------------|--------------------------|---------]
                           Dm
Now, that's the reason I'm calling you this evening
Cm                                      Gm
  Baby, tell me 'cause I've just got to know


-------------------------------------------------------
03:09
SOLO
*****
[----brp-----------|----------10----------|--brp-----b-|-----b-------10----]
[---13--11---------|----11-13----13-11----|-13--11--13-|----13-11-13-------]
[--x-------12~~~~~-|-12----------------12-|------------|-12-------------12-]
[-x----------------|----------------------|------------|-------------------]
[------------------|----------------------|------------|-------------------]
[------------------|----------------------|------------|-------------------]

03:29
   b
[-13----13-10-------------|----13-15-|-13-10--b---p------------10-]
[-------------13-10-------|-15-------|-------13-13-11----11-13----]
[-------------------12-12-|----------|----------------12----------]
[-------------------------|----------|----------------------------]
[-------------------------|----------|----------------------------]
[-------------------------|----------|----------------------------]

03:44
[--brp------------------------|-b--------------------|--------b----------10-]
[-13--11---p------------------|13-13-11-13--11-10----|-11-13-13-13-11-13----]
[--------12-10---p------------|-------------------12~|x---------------------]
[--------------12-10---p------|----------------------|----------------------]
[--------------------13-12-10-|----------------------|----------------------]
[-----------------------------|----------------------|----------------------]

04:01
    p  
[-13-10---p---------------|----------------------]
[-------13-11----13-11----|------b--------h------]
[-------------12-------12-|-10-7-5-5-3---3-5-3---]
[-------------------------|------------5-------5-]
[-------------------------|----------------------]
[-------------------------|----------------------]


-------------------------------------------------------
VERSE 3
********
          Gm
I've been worried all day long

[------------]
[-brp--------]
[-5--3---3-5-]
[------5-----]
[------------]
[------------]
Cm
  I just don't know what to do

[-------------------|-----------]
[-------------------|-6-3-------]
[-------------------|-----5-3---]
[---3-5-3--s----3-5-|---------5-]
[-5-------5\3-1-----|-----------]
[-------------------|-----------]
          Cm
I've been worried all day long

[-----3-6-3-----]
[---3-------3---]
[-5-----------5-]
[---------------]
[---------------]
[---------------]
                                    Gm
You know, I just don't know what to do

[------------------------------------------3----------------]
[-3--3-6-b------------------------------3----6-3-6-3--b-----]
[--------5-5-3----3--p---------s----3-5---------------5-5-3-]
[--------------5----5-3----s--3\5---------------------------]
[-----------------------5-3\1-------------------------------]
[-----------------------------------------------------------]
            Dm
You know it may sound silly to you, woman
Cm                               Gm
  But tell me that dream was not true


[--------------------------]
[-brp-----h---6-3-b---p----]
[-5--3---3-5------5--5-3---]
[------5-----------------5-]
[--------------------------]
[--------------------------]



A Nice Tune. Enjoy......
Comments