Fleetwood Mac - Worried Dream Chords & Tabs

 

Worried Dream Chords & Tabs

Fleetwood Mac Chords & Tabs

Version: 1 Type: Bass Tab 0 ratings
1 star 2 stars 3 stars 4 stars 5 stars
comments

Worried Dream Bass Tab

                                       Artist - Fleetwood Mac
                                      ************************
                                        Song - Worried Dream
                                       **********************
                          Album - The Best Of Peter Green's Fleetwood Mac
                         *************************************************
                                        Tabbed By - Ayreon77
                                       **********************



VERSE 1
*******
      Well i feel so bad     I wonder what's wrong with me      Well, I
[-----------------|--------|---------------|-----------|----------------]
[-5---5-3---------|--------|-----3-5---5-3-|-------3-5-|-5-3-3----------]
[-----------5-4-3-|-3------|-5-------------|-5---------|--------5-5-4-3-]
[-----------------|----5-5-|---------------|----3------|----------------]

  feel so bad,     I wonder what's wrong with me            
[----------|-----------|---------|---------|----------------]
[----------|-----------|---------|----3--5-|-5--3---------5-]
[---3------|---------3-|-3-------|-5-------|--------5-------]
[------5-5-|-3--6-5----|----5--5-|---------|-----------3----]

 00:39         I think I'll call my baby, Find out just what the matter can be
[----------------------|---------|--------|-5---3----3-----|----------------]
[-5--3-3---------------|---------|--------|-------------5--|--------------5-]
[---------5-------3--5-|-------5-|--5---3-|----------------|----------5-----]
[------------3---------|----5----|--------|----------------|----------------]

00:55
[------|-------------------]
[------|----3--5-5---------]
[-5--3-|-5-------------5-5-]
[------|------------5------]


----------------------------------------------------
01:02
VERSE 2
*******
 Last night I dreamed about my baby
[---------------------------------------------------]
[-------5-------------------------5---3--3----------]
[---5---------------------------------------5--4--3-]
[---------------------------------------------------]

 I woke up and the tears were running all down my face
[------------------------------------------------------------------------]
[----------------------------3-----5------------------5--3-3-------3---5-]
[---3----------------5----------------------------------------5----------]
[--------5-------------------------------------------------------3-------]

             Now, when I woke up early this morning
[---------------|------------------------------------------|----------------]
[-5--3-3--------|------------------------------------------|--------------5-]
[---------5-4-3-|-----------------3----------------------3-|-3-------5------]
[---------------|-------------------------5--5---3---5-----|----6-6-----6---]

The tears were running all down my face                You know I was dreaming  
[---------------------------------------|----------------------]
[---------------5---3-----------------5-|--5---3-3-------------]
[----------------------------5----------|-----------5--------5-]
[---------------------------------3-----|--------------6--7----]

01:47          That some other man was taking my place
[-----|-------------------------------------------|----------|--------------]
[-----|--------------------------------------3--5-|----------|---5--5-------]
[-5-5-|-5-4-3------3-----------------3------------|--5--3--3-|-5-------3--5-]
[-----|---------------5-----------5---------------|----------|--------------]


----------------------------------------------------
02:05
VERSE 3
*******
    I said, I dreamed about you, baby                         02:15
[--------------------------------------|-----------|---------|----------]
[-------------5------------------5---3-|-----------|---------|--------5-]
[-5--3--5------------------------------|--5---5--3-|--3------|-3---3----]
[--------------------------------------|-----------|-----6-6-|---5------]
[ Tab from: http://www.guitartabs.cc/tabs/f/fleetwood_mac/worried_dream_btab.html ]
I dreamed you didn't want me 'round no more                 I said, I dreamed
[-----------------------------------------------|-----------------]
[---------5--3-----------------------------5--5-|-5--3-3----------]
[-------------------------------5--3--5---------|---------5-------]
[-----------------------------------------------|-----------5-6-7-]

 about you, baby                   You know I dreamed you didn't want me round 
[------------5--3-3---------|----5--3-3----------------------------------]
[--------------------5-5----|-----------------5-----------------5------5-]
[-------------------------3-|-------------------------------5------------]
[---------------------------|--------------------------------------------]

 no more                               that's the reason I'm calling 
[----------------------------|---------------------------------]
[---------5--3-3--------3--5-|-5--3-3--------------------------]
[-----------------5----------|-------------5-----------------5-]
[--------------------3-------|------------------6------7-------]

you this evening          Baby, tell me 'cause I've just got to know 
[----------------|-------|--5--3----3-----------------------------]
[----------------|-------|----------------5---------------------5-]
[--------------5-|-5-4-3-|-------------------------------3--------]
[-----------5----|-------|----------------------------------------]

03:00
[-------|---------|----------------]
[-5-----|-------5-|----------------]
[-----3-|-3--3----|----5---5--3--5-]
[-------|---------|-3--------------]


----------------------------------------------------
03:09
GUITAR SOLO
************
[-------|--------------|-----------------|---------------|-----------------]
[--5--5-|-5--3---------|------------3--5-|-5--3--------5-|-5--3-3--5-------]
[-------|-------5-5--3-|-3-------5-------|-------5---5---|-----------5-4-3-]
[-------|--------------|----6-6----------|---------5-----|-----------------]


[----------------|-5--3-3------------|--------------------|-----------------]
[----------------|---------5-------5-|-5--3-3-----------5-|-5-3-3-----------]
[-3------------3-|-----------3--5----|---------5-----5----|-------5-3-4-5-5-]
[---6-6--3--5----|-------------------|------------3-------|-----------------]

03:53
[-------|-----------3-3----|-----|------------------------]
[-------|--------5-------5-|---5-|-5-----------5--5-------]
[---5-5-|-5--3-------------|-5---|----3--3--3-----------5-]
[-5-----|------------------|-----|-------------------5----]


----------------------------------------------------
04:12
VERSE 4
*******
      I've been worried all day long
[---------------------------------------------------]
[-----------------------5-------------5--3----------]
[-5------3-------5---------------------------5--4-3-]
[---------------------------------------------------]

         I just don't know what to do
[-------------------------------------|-------------------]
[--------------------------------5----|-5--3--------3--5--]
[-3-----------3----------3------------|--------5-5--------]
[------6------------------------------|-------------------]

                I've been worried all day long
[-----------------|-------------------------------------------]
[-5--3-3----------|-------------------------------------------]
[---------5-5-4-3-|-----------------------3-----------------3-]
[-----------------|---------------------------6--6--3-3--5----]

  You know, I just don't know what to do
[-----------------------------------------|------------------|-----------]
[-----5----------------------------3----5-|-5--3--------3--5-|-5--3-3----]
[-----------------------------------------|-------5----------|---------5-]
[------------6-----6-----7----------------|----------3-------|-----------]

    You know it may sound silly to you, woman         
[----------------------------------------|---------]
[----------------------------------------|---------]
[---------------5----------------------5-|--5--4-3-]
[---6----7------------------------5------|---------]

 But tell me that dream was not true
[---------------------------------|----------------------]
[-------------------------------5-|-----5---------3-4----]
[---------------------------------|--5----3----3---------]
[-----------------6---6--7--7-----|--------------------3-]




Pretty Straight Forward And Easy To play Along To.

Enjoy.........
Comments