Fleetwood Mac - When I See You Again Chords & Tabs

 

When I See You Again Chords & Tabs

Fleetwood Mac Chords & Tabs

Version: 1 Type: Tab 0 ratings
1 star 2 stars 3 stars 4 stars 5 stars
comments

When I See You Again Tab

   
#----------------------------------PLEASE NOTE--------------------------------#
#This file is the author's own work and represents their interpretation of the#
#song. You may only use this file for private study, scholarship, or research.#
#-----------------------------------------------------------------------------#


From:shankwit@means.net
Sent:31 July 1998 02:25 AM
Subject: f/fleetwood_mac/when_i_see_you_again.tab

WHEN I SEE YOU AGAIN
words and music by Stevie Nicks
performed by Fleetwood Mac on the album Tango In The Night
transcribed by jjswingcat@mailcity.com

tuning=EADGBe
Chords used:
D#:  x68886
A#:  x13331
G#:  xx3565 (you can also use a barred A chord on the eighth fret)

VERSE riff:
e|---------0-------|---------0-------|---------0-------|---------0------|
B|-----0-------0---|-----0-------0---|-----0-------0---|-----0-------0--|
G|---2---2---2---2-|---2---2---2---2-|---2---2---2---0-|---2---2---2---2|
D|-----------------|-----------------|-----------------|----------------|
A|-0---------------|-0---------------|-----------------|----------------|
E|-----------------|-----------------|-0---------------|-0--------------|
[ Tab from: http://www.guitartabs.cc/tabs/f/fleetwood_mac/when_i_see_you_again_tab.html ]
CHORUS riff:
e|---0---0-----|---0---0-----|---0---0------|
B|-----0---0---|-----0---0---|-----0---0----|
G|-----------2-|-----------2-|-----------2--|
D|-------------|-------------|-0------------|
A|-2-----------|-4-----------|--------------|
E|-------------|-------------|--------------|

BRIDGE riff:
(this isn't in the song but it fits with the rest and sounds right)
e|----------------|-----------------|------------------|---------------|
B|--------8-------|---------8-------|---------3--------|--------3------|
G|----8-------8---|-----8-------8---|-----3-------3----|----3-------3--|
D|--8---8---8---8-|---8---8---8---8-|---3---3---3---3--|--3---3---3---3|
A|6---------------|-6---------------|-1----------------|1--------------|
E|----------------|-----------------|------------------|---------------|

e|-----------------|-----------------|---------5-------|---------5------|
B|---------8-------|---------8-------|-----6-------6---|-----6-------6--|
G|-----8-------8---|-----8-------8---|---5---5---5---5-|---5---5---5---5|
D|---8---8---8---8-|---8---8---8---8-|-3---------------|-3--------------|
A|-6---------------|-6---------------|-----------------|----------------|
E|-----------------|-----------------|-----------------|----------------|
Comments