Fleetwood Mac - The Chain Chords & Tabs

 

The Chain Chords & Tabs

Fleetwood Mac Chords & Tabs

Version: 1 Type: Tab 2 ratings
1 star 2 stars 3 stars 4 stars 5 stars
comments

The Chain Tab

#----------------------------------PLEASE NOTE--------------------------------#
#This file is the author's own work and represents their interpretation of the#
#song. You may only use this file for private study, scholarship, or research.#
#-----------------------------------------------------------------------------#
#-- File created with Instab - http://www.pconline.com/~smcarey/instab.html --#
#-----------------------------------------------------------------------------#

Author/Artist: Fleetwood Mac
Title: The Chain
Album: Rumours
Transcribed by: Brandon Ian Jones
Email: iLoveStevieNicks@earthlink.net

Make sure you're tuned to Drop D (thats your sixth 
string tuned to your open 5th string!).  Also Lindsey uses 
a capo at the 2nd fret for the whole song.  When you get 
to the solo at the end, take the capo off.  Keep in mind 
that this tab is showing only one guitar.  I believe the 
original track had 2 or 3 guitars going at once.  So I 've 
mixed it up a bit to contain all the parts into one for ease 
of playing along to the record.

-------------0----------------------------------------0-----------------------
-------1-------------------1-----1h3v-----------1-----------------------------
---2-------2-----------2-------2------------2-------2-------------------------
-----0-------0-----------0-------0------------0-------0-----------------------
------------------------------------------------------------------------------
-0-------0-----------0-------0------------0-------0---------------------------
 (Enter kickdrum)                                                             

-----------------------------------------------------------0------------------
-------1-----1-1h3------------1-----1-1h3v-----------1--------1h3v------------
---2-------2--------------2-------2--------------2-------2--------------------
-----0-------0--------------0-------0--------------0-------0------------------
------------------------------------------------------------------------------
-0-------0-----0--------0-------0-----0--------0-------0------0---------------
                                                                              

---------------------------------------xx-------------------------------------
-------1-----1--1h3v-------------------3x-------------------------------------
---2-------2---------------------------2x-------------------------------------
-----0-------0------------3p0-----0----0x-------------------------------------
-------------------------------3b------0x-------------------------------------
-0-------0------0-------------------3b-xx-------------------------------------
 (all this comes before the vocals)                                           

-------------------------------------------------3----------------------------
-----------3v------------------------------------------3----------------------
------------------------------------------------------------------------------
----0------0-----------------------------------0-----0------------------------
------3b0---------------------------------------------------------------------
-0-------------------------------------0---0-5-----5--------------------------
                                                      (Last note rings)       

------------------------------------------------------------------------------
------------------3------------3v--------------3-------3v---------------------
----------------------0----------------------2---2----------------------------
----------------0-------0----0-------------------------0----------------------
--------------3-----3------1-----------------------3b0------------------------
-----------------------------------3h4-0--------------------------------------
 
--0----------------------------------------------3----------------------------
--3------3--------3----------------------------------3------------------------
--2---------------------------------------------------------------------------
--0-------------0-----------------------------0-------------------------------
-----------3b0----------------------------------------------------------------
------0---------------------------------0-5--------5--------------------------
 (^upstroke)                                            (last note rings)       

----------------------------------------------3-------------------------------
------------------------------------------3-----3----3-----3---------3--------
-------------------------------------------------------0---------------2------
----------------------------------------0----------------0--------------------
-------------------------------------3------3--------1--------------------3b0-
-------------------------------------------------------------3-4-0------------
                                          

-1----------------------------------------------------------------------------
---3v-------------------------------------------------------------------------
------------------------------------------------------------------------------
---------------5--------5-------5------5-------5-------5------5------5--------
---------------5--------5-------5------5-------5-------5------5------5--------
---------------5--------5-------5------5-------5-------5------5------5--------
           

------------------------------------------------------------------------------
---------x---------x----------------------------------------------------------
---------2---------2----3---3----------5-----5------5-------5-----5-----------
---------0---------0----3---3----------5-----5------5-------5-----5-----------
---------0---------0----1---1----------3-----3------3-------3-----3-----------
------------------------------------------------------------------------------
 

------------------------------------------------------------------------------
------------------------------------------------------------------------------
------------------------------------------------------------------------------
--------------5---------5-------5------5-------5------5-----5------5----------
--------------5---------5-------5------5-------5------5-----5------5----------
--------------5---------5-------5------5-------5------5-----5------5----------
      

------------------------------------------------------------------------------
--------x---------x-----------------------------------------------------------
--------2---------2----3----3----------5-----5--5---5-----5------5------------
--------0---------0----3----3----------5-----5--5---5-----5------5------------
--------0---------0----1----1----------3-----3--3---3-----3------3------------
------------------------------------------------------------------------------
   

------------------------------------------------------------------------------
-------1-----1-------------1---1-1h3-----------3----3v---------------------3x-
---2-------------------2-------------------2----------------------2--------2x-
-----0-------0-----------0-------0-----------0------0-------3p0---0--------0x-
---------3b0-------------------------------------3b-------------3---3p0----0x-
-0-------------------0-------0-----------0------------------------------3b----
                                                                              

----------------------------------------3------------------3-----3------------
-----3----3v-------------------------------3-----------------3-----3---3------
--------------------------------------------------------------------------0---
---0------0---------------------------0-------------------------------------0-
-------3b------------------------------------------------3-----3-------1------
-0-------------------------------0--5-----------------------------------------
            

------------------------------------------------------------------3-----------
-3--------------------------3-----3v----------------------------------3-------
----0-------------------------------------------------------------------0-----
----------3-2-0---0-------0-------0-----------------------------0-------------
----------------3-------------3b0---------------------------------------------
------------------------0----------------------------------0--5-----0---------
                                     
[ Tab from: http://www.guitartabs.cc/tabs/f/fleetwood_mac/the_chain_tab.html ]
----------------------------3-----3-------------------------------------------
------------------------------3-----3---3-------------------------------------
------------------------------------------0-----------------------------------
--------------------------------------------0-----3p0-----0-------------------
--------------------------3-----3-------1-------------3p0---------------------
------------------------------------------------------------------------------
                                            

---------------------------------------------------3--------------------------
---------3--------3v-----------------------------------3----------------------
------------------------------------------------------------------------------
-------0-------0---------------------------------0----------------------------
-----------3b0----------------------------------------------------------------
--3b-0-------------------------------------0-0-5-----0------------------------
           

--------------------3------------------------------xx-------------------------
--------------3-------3--3----------------3--------3x-------------------------
----------------2----------0--------------2--------2x-------------------------
------------------0----------0-----3p0----0--------0x-------------------------
-----------3-------------1-------------3b---3p0----0x-------------------------
------------------------------------------------3b-xx-------------------------
                                                         

------------------------------------------------------------------------------
------------------------------------------------------------------------------
------------------------------------------------------------------------------
--------------5--------5------5------5-------5-------5------5------5----------
--------------5--------5------5------5-------5-------5------5------5----------
--------------5--------5------5------5-------5-------5------5------5----------
      

------------------------------------------------------------------------------
--------x---------------------------------------------------------------------
--------2----2---------3-----3----------5---5-----5----5------5-----5---------
--------0----0---------3-----3----------5---5-----5----5------5-----5---------
--------0----0---------1-----1------0---3---3-----3----3------3-----3---------
------------------------------------------------------------------------------
 

------------------------------------------------------------------------------
------------------------------------------------------------------------------
------------------------------------------------------------------------------
-------------5-------5-------5------5------5------5------5-------5------------
-------------5-------5-------5------5------5------5------5-------5------------
-------------5-------5-------5------5------5------5------5-------5------------
           

------------------------------------------------------------------------------
--------x---------------------------------------------------------------------
--------2-----2--------3---3-3---------5-5---5-----5-----5-----5-5---5--------
--------0-----0--------3---3-3---------5-5---5-----5-----5-----5-5---5--------
--------0-----0--------1---1-1---------3-3---3-----3-----3-----3-3---3--------
------------------------------------------------------------------------------
 

--------0-----0---------------------------0-----0-----------------------------
--3-3-----3-----3---3v--3---------3--3------3-----3---3v----------------------
--2-3-------3-----2-----3---------2--3--------3-----2-------------------------
--0-0-------------------0---------0--0----------------------------------------
--0---------------------0---------0--x----------------------------------------
------------------------------------------------------------------------------
                                                                              

-0-----0-----0----------------------------------------------------------------
---3-----3-------3v-----------------------------------------------------------
-----3-----3---2--------------------------------------------------------------
------------------------------------------------------------------------------
------------------------------------------------------------------------------
------------------------------------------------------------------------------
                     (last note rings....enter John McVie's bass)             

--0-----0--0--0-----0---0----0---0---0-----0-0---0-----0---0---0---0--0--0----
--5--5--5--5--5----55-5-5----5---5---5--5--555---55--3h5---5-5-5-5-5--5--5----
------------------------------------------------------------------------------
------------------------------------------------------------------------------
------------------------------------------------------------------------------
------------------------------------------------------------------------------
 (guitar volume swells slowly in)                                             

----------0------0----0-----0----0--------------------------------------------
-5/17-17--17--17-17--15-17v-17v--17v-17v-17v-15-15h17v--17v--17v-17v17v-17v---
------------------------------------------------------------------------------
------------------------------------------------------------------------------
------------------------------------------------------------------------------
------------------------------------------------------------------------------
                                                                              

---------15b--------------------15--------------------15-------15-------15----
-17v17v------17-17-15-17v-17-17----17-17-15-17v-17-17----17-17----17-17-17----
------------------------------------------------------------------------------
------------------------------------------------------------------------------
------------------------------------------------------------------------------
------------------------------------------------------------------------------
                                                                              

-15-15--------15-17-17b-17b-17b-17b-17b-17b-17b-17b-17b-17b-17b-17b-17b-17b---
-17-17-17-17v-----------------------------------------------------------------
------------------------------------------------------------------------------
------------------------------------------------------------------------------
------------------------------------------------------------------------------
------------------------------------------------------------------------------
                                                                              

-17^17^17^-17-15-12-------------------12-------12--12--12--12--12---12---12---
--------------------15b-15b-15^-12h15----15-12-15b-15b-15b-15b-15b--15b--15^--
------------------------------------------------------------------------------
------------------------------------------------------------------------------
------------------------------------------------------------------------------
------------------------------------------------------------------------------
                                            

--12--12--12--12-12---12-12-1212-12-12--12\0----------------------------------
--15b-15v-15b-15-15b--15^15-1515-15-15b-15\0----------------------------------
------------------------------------------------------------------------------
------------------------------------------------------------------------------
------------------------------------------------------------------------------
------------------------------------------------------------------------------
                 

-----0-0---0--0----0-0--0--0--0--0--0-----------------------------------------
-----5-5---5-555---5-5--5--5--5--55-5-----------------------------------------
------------------------------------------------------------------------------
------------------------------------------------------------------------------
------------------------------------------------------------------------------
------------------------------------------------------------------------------
 ...                                  (Track fades out)  
                     
Comments