Fleetwood Mac - The Chain Chords & Tabs

 

The Chain Chords & Tabs

Fleetwood Mac Chords & Tabs

Version: 3 Type: Bass Tab 0 ratings
1 star 2 stars 3 stars 4 stars 5 stars
comments

The Chain Bass Tab

-------------------------------------------------------------------------------
			     The chain bass solo - Fleetwood mac
-------------------------------------------------------------------------------

Tabbed By : Isimo
e-mail: www.isimo@freeuk.com
[ Remember 0 means open string ]
[ Tab from: http://www.guitartabs.cc/tabs/f/fleetwood_mac/the_chain_btab_ver_3.html ]
G|----------------------------------------------------------------------------|
D|----------------------------------------------------------------------------|
A|------0---0---2---3---2---0-------0---2---------------0---0---2---3---2-----|
E|---0--------------------------3------------0------0-------------------------|

G|----------------------------------------------------------------------------|
D|----------------------------------------------------------------------------|
A|---0-------0---2---7--------------------------------------------------------|
E|-------3--------------------------------------------------------------------|
Comments