Fleetwood Mac - Sweet Girl Riff Chords & Tabs

 

Sweet Girl Riff Chords & Tabs

Fleetwood Mac Chords & Tabs

Version: 1 Type: Tab 0 ratings
1 star 2 stars 3 stars 4 stars 5 stars
comments

Sweet Girl Riff Tab

   
#----------------------------------PLEASE NOTE--------------------------------#
#This file is the author's own work and represents their interpretation of the#
#song. You may only use this file for private study, scholarship, or research.#
#-----------------------------------------------------------------------------#

Date: Fri, 20 Mar 1998 16:03:27 EST
From: MZarou 
Subject: Tab: Sweet Girl

Song: Sweet Girl
Group: Fleetwood Mac
CD: The Dance
Tabber: MZarou@aol.com ( formally known as RZarou )


Riff 1
[ Tab from: http://www.guitartabs.cc/tabs/f/fleetwood_mac/sweet_girl_riff_tab.html ]
   A             D(9)           A               E
E--------0-----*--------0-----*--------0-----*--------0-----*
B--2--------2--*--3--------3--*--2--------2--*--0--------0--*
G-----2--------*-----2--------*-----2--------*-----1--------*
D--------------*--4-----------*--------------*--------------*
A--0-----------*--------------*--0-----------*--2-----------*
E--------------*--------------*--------------*--------------*

(play this throughout the verses)

Riff 2

   F5   G5   A5
E---------------*
B---------------*
G---------------*
D--3----5----7--* (play this throughout the chorus)
A--3----5----7--*
E--1----3----5--*
Comments