Fleetwood Mac - Sentimental Lady Chords & Tabs

 

Sentimental Lady Chords & Tabs

Fleetwood Mac Chords & Tabs

Version: 1 Type: Tab 0 ratings
1 star 2 stars 3 stars 4 stars 5 stars
comments

Sentimental Lady Tab

#----------------------------------PLEASE NOTE---------------------------------#
#This file is the author's own work and represents their interpretation of the #
#song. You may only use this file for private study, scholarship, or research. #
#------------------------------------------------------------------------------#


Transcription to "Sentimental Lady" by Bob Welch/Fleetwood Mac  1972
By: musicman@perrinet.org

Comments: I think it is pretty close to what Bob is playing but I may be off on a few notes or chords.  Corrections welcome.


Capo at 4th fret

Enjoy!!

Intro(also played over chorus):		   4x
E---7------7------7----|---8------8------8-------||----0-----|
B-----8------8---------|-----6------6------------||----1-----|
G-9-----9------9-------|-7-----7------7----------||----0-----|
D----------------------|-------------------------||----2-----|
A----------------------|-------------------------||----------|
E----------------------|-------------------------||----------|
[ Tab from: http://www.guitartabs.cc/tabs/f/fleetwood_mac/sentimental_lady_tab.html ]
Verse:
  You are here and warm...						 	   3x
E--------------|-------------|------------|------------------0----0-0---0-0--0--||
B--1---1-1-----|---3---3-3---|---1---1-1--|---3----3-3-------1----1-1---0-0-^1--||
G--2---2-2-----|---4---4-4---|---2---2-2--|---4----4-4-------0----0-0---0-0--0--||
D--3---3-3-----|---5---5-5---|---3---3-3--|---5----5-5-------2----2-2---0-0-^2--||
A--3---3-3-----|---5---5-5---|---3---3-3--|---5----5-5--------------------------||
E--1---1-1-----|---3---3-3---|---1---1-1--|---3----3-3--------------------------||


Pre Chorus:				
  And all of those things... 			   4x
E—----0----0---0---0------|----3----3---3---3----||
B-----3----3---3---3------|----3----3---3---3----||
G-----0----0---0---0------|----0----0---0---0----||
D-----2----2---2---2------|----3----3---3---3----||
A-----2----2---2---2------|----------------------||
E-----0----0---0---0------|----3----3---3---3----||

Chorus:				
  Sentimental Gentle Wind  Blowing through my life again  3x
E—-0---------|--1---------|-0----------------|--1---------||
B--0---------|--1---------|-0----------------|--1---------||
G--0---------|--2---------|-0----------------|--2---------||
D--2---------|--0---------|-2----------------|--0---------||
A--3---------|------------|-3----------------|------------||
E------------|------------|------------------|------------||

Comments