Fleetwood Mac - Rhiannon Chords & Tabs

 

Rhiannon Chords & Tabs

Fleetwood Mac Chords & Tabs

Version: 3 Type: Tab 1 rating
1 star 2 stars 3 stars 4 stars 5 stars
comments

Rhiannon Tab

#----------------------------------PLEASE NOTE--------------------------------#
#This file is the author's own work and represents their interpretation of the#
#song. You may only use this file for private study, scholarship, or research.#
#-----------------------------------------------------------------------------#
#-- File created with Instab - http://www.pconline.com/~smcarey/instab.html --#
#-----------------------------------------------------------------------------#

Author/Artist: Fleetwood Mac
Title: Rhiannon
Album: White FMac album
Transcribed by: brandon ian jones
Email: BrandonJones1979@hotmail.com

To play this song properly, you cannot use a pick.
If you can use a pick, and still do the fingerpicking at the 
same time, then I commend you.  Oh, and the song is 
in standard tuning.

------------------------------------------------------------------------------
-1---3-------5v---------3-------1---0-------------------------0-------1-------
-2---4-------5v---------4-------2---0-------2v-----------2----0-------2-------
--------------------------------------------2v-----------3--------------------
-0-------0---0---0------0---0---0-------0-------0---0-------------------------
---------------------------------------------------------1-------1----1----1--
                                                                              

------------------------------------------------------------------------------
-0---0------------------------------------------------------------------------
-0---0-------2----------------------------------------------------------------
-------------3----------------------------------------------------------------
------------------------------------------------------------------------------
-1---1---1---1---1---1--------------------------------------------------------
 Ok here is the infamous intro riff.  Play it repeatedly on the choruses.     

------------------------------------------------------------------------------
----------------1----------------1-----------------1--------------------------
------0----2----0--------0---2---0---------0---2---0--------------------------
------2----3-------------2---3-------------2---3------------------------------
--3---------------------------------------------------------------------------
------------------------------------------------------------------------------
                                 

------------------------------------------------------------------------------
--------------1------0-----------------------1------0-------------------------
----------2---2------0--2----------------2---2------0--2----------------------
------3---3-------------3------------3---3-------------3----------------------
------3------------------------------3----------------------------------------
--1------------------------------1--------------------------------------------
                                                        

------------------------------------------------------------------------------
-------------1--------------1--------------1----------------------------------
-----0---2---0------0---2---0------0---2---0----------------------------------
-----2---3----------2---3----------2---3--------------------------------------
--3---------------------------------------------------------------------------
------------------------------------------------------------------------------
                               

------------------------------------------------------------------------------
-------------1------------------------1-----0---------------------------------
---------2---2--------------------2---2-----0---2-----------------------------
-----3---3--------------------3---3-------------3-----------------------------
-----3------------------------3-----------------------------------------------
-1------------------------1---------------------------------------------------
                                                          

------------------------------------------------------------------------------
-------------1-----0-------1---------0-------1-------0------------------------
---------2---2-----0---2---2---------0---2---2-------0---2--------------------
-----3---3-------------3-----------------3---------------3--------------------
-----3------------------------------------------------------------------------
-1----------------------------------------------------------------------------
                                   
[ Tab from: http://www.guitartabs.cc/tabs/f/fleetwood_mac/rhiannon_tab_ver_3.html ]
-----------------------8------------------------------------------------------
---8/10\8v----------8-----10---8--10v------------------------------1-1-1-1----
-----------------9-----------9-------------------------------------2-2-2-2----
-------------------------------------------------------------------3-3-3-3----
-------------------------------------------------------------------3-3-3-3----
------------------------------------------------------------------------------
                                     

----------------------------------------8-------------------------------------
---1--1-1--1-----------------10\8/10------10----------------------------------
---2--2-2--2------------11\9---------9--------9\7--5h7-7b7--5-----------------
---3--3-3--3--------------------------------------------------7v--------------
---3--3-3--3------------------------------------------------------------------
------------------------------------------------------------------------------
                                                       

------------------------1----0------------------------------------------------
------------------------1----0----1/3----1--0---------------------------------
----------------------------------2/4----2--0---2v----------------------------
------------------------------------------------2v----------------------------
------------------------------------------------------------------------------
------------------------------------------------------------------------------
                                                     

------------------------------------------------------------------------------
-----------1-1--1--11--1------------------20----------------------------------
-----------2-2--2--22--2---------------------19b19--17--19--------------------
-----------3-3--3--33--3-----------------------------------19-19v-------------
-----------3-3--3--33--3------------------------------------------------------
------------------------------------------------------------------------------
                         (2nd time around)                       

------------------------------------------------------------------------------
---------------------20-------------------------------------------------------
---------------19h21----21\19--17--19/21\19p17--------------------------------
-----------------------------------------------19v----------------------------
------------------------------------------------------------------------------
------------------------------------------------------------------------------
        

------------------------------8b----------------------------------------------
----------------------------------10v----8-10b10--8--10v----------------------
------------------------------------------------------------------------------
------------------------------------------------------------------------------
------------------------------------------------------------------------------
------------------------------------------------------------------------------
                                  (then into the outro solo below...)             

-10---------------10--------------8-10-10b--8-10---------------5--------------
----10-10v---8h10----10-10-8-10v-----------------10v---------5---8/10v--------
------------------------------------------------------------------------------
------------------------------------------------------------------------------
------------------------------------------------------------------------------
------------------------------------------------------------------------------
                                                                              

------------------------------------------------------------------------------
-8/10-----------------8-10----------------------------------------------------
-------7h9v-------7/9------9/7--5--7---5h7-----------------5b-----------------
-------------------------------------7-----7v----------5h7----7v--------------
------------------------------------------------------------------------------
------------------------------------------------------------------------------
                                                                              

----------------------------------5------------------8-10b-8-10---------------
-----------------------------5--8---8/10v-------8-10------------10-10\0-------
-----5-7b7-5-7-------------5--------------------------------------------------
-5h7-----------7-7v-----------------------------------------------------------
------------------------------------------------------------------------------
------------------------------------------------------------------------------
                                                                              

------------------------------------------------------------------------------
------------------------------------------------------------------------------
----------------------5b---------------5-7b-5-7-------------------------------
------------------5h7----7v--------5h7----------7-7/0-------------------------
------------------------------------------------------------------------------
------------------------------------------------------------------------------
                         
Comments