Fleetwood Mac - Oh Well Chords & Tabs

 

Oh Well Chords & Tabs

Fleetwood Mac Chords & Tabs

Version: 6 Type: Tab 0 ratings
1 star 2 stars 3 stars 4 stars 5 stars
comments

Oh Well Tab

================================================================================
         Title : Oh Well Pt2
        Artist : Fleetwood Mac / Peter Green
================================================================================



                                  continues as for Oh Well pt.1 

E|--0----------|-------|----------------|-------|
B|--0----------|-------|-----0--0--0----|-------|
G|--0----------|--7----|-----0--0--0----|--4----|
D|--5----------|--7----|-----5--5--5----|--4----|
A|--7------/9--|--9----|-----7--7--7\5--|--5----|
E|--0----------|-------|--0-------------|-------|



 solo classical guitar

E|-------|----------------------------|-------------------------|
B|-------|----------------------------|-------------------------|
G|-------|----------------------------|-------------------------|
D|-------|----------------------------|-------------------------|
A|--2--2/|7-------10--9--7\5--5--3--2/|7-----7\5--5--3--2--0--2/|
E|-------|-----0----------------------|---0---------------------|



E|------------------------------|-----------|-------------------------|
B|------------------------------|-----------|-------------------------|
G|------------------------------|-----------|-------------------------|
D|------------------------------|-----------|-------------------------|
A|-7-----7\5--5--3--2--0--2h3p2-|------2--2/|7-----10--9h12--10--9--9-|
E|----0-------------------------|-0---------|---0---------------------|


[ Tab from: http://www.guitartabs.cc/tabs/f/fleetwood_mac/oh_well_tab_ver_6.html ]
E|--------------------------------------------------|---------------------|
B|--------------------------------------------------|---------------------|
G|--------------------------------------------------|---------------------|
D|--------------------------------------------------|---9--9--7---------7-|
A|-7-----10--9h12--10--9--9----7-----7\5--7--7/9--5/|7-----------10--9----|
E|----0---------------------------0-----------------|---------------------|



E|--------------------3--2-------------|--------------------------|
B|--------------------5-----5--3-------|-5----5--3--------------5-|
G|----------4--4------------------5--4-|------------5--4--2--4----|
D|-------------------------------------|--------------------------|
A|-10--7-------------------------------|--------------------------|
E|-------------------------------------|--------------------------|



E|--------------------------|-------------|-----3--2-----2--5--|
B|--5--3--------------------|-------------|--5--------3--------|
G|--------5--4--2----4h5p4--|-------4--4--|--------------------|
D|--------------------------|--2----------|--------------------|
A|--------------------------|-------------|--------------------|
E|--------------------------|-------------|--------------------|



E|-7/10-----10--11--7--11\--14--|--14--12--12--10--12--8--10--|--10--7---|
B|-------8----------------------|--------------10------8------|------0---|
G|------------------------------|--------------11-------------|----------|
D|------------------------------|-----------------------------|----------|
A|------------------------------|-----------------------------|----------|
E|------------------------------|-----------------------------|----------|



E|-8--7\5---------------------|---------------------|--------------------------|
B|-8-------8--7--5----3-------|---------------------|--------------------------|
G|-9---------------------5--4-|-2p4p0---------------|--------------------------|
D|----------------------------|--------4--2p0-------|--------------------------|
A|----------------------------|----------------3--2/|-9---\7------------9------|
E|----------------------------|---------------------|---------7\3/8--7-----<7>-|
Comments