Fleetwood Mac - Oh Well Chords & Tabs

 

Oh Well Chords & Tabs

Fleetwood Mac Chords & Tabs

Version: 5 Type: Tab 0 ratings
1 star 2 stars 3 stars 4 stars 5 stars
comments

Oh Well Tab

================================================================================
         Title : Oh Well
        Artist : Fleetwood Mac / Peter Green
================================================================================


electric intro

E|------------------------------|-------------------|
B|------------------------------|-------------------|
G|------------------------------|-------------------|
D|---------------0--------------|-------------------|
A|----------0h2-----0h2p0-------|-----2-------------|
E|--0--3p0-----------------3p0--|--0--0--0--0--3p0--|



E|-------------------------------------|-------------------------|
B|-------------------------------------|-------------------------|
G|-------------------------------------|-------------------------|
D|-------0-------2---------------------|-------0-----------------|
A|--0h2-----0h2------------------------|--0h2--------------------|
E|--------------------0--0--0--0--3p0--|----------5b6----r--3p0--|

                          

E|-----------------------------------------------------|
B|-----------------------------------------------------|
G|-----------------------------------------------------|
D|--------------------------0h2--0---------------------|
A|-------------------0h--2----------2p0----------------|
E|--0--0--0--0--3p0----------------------3--2--0----0--|



 Classical Section

E|-----------|------------------|-----------|
B|-----------|-------0--0--0----|-----------|
G|--7--------|-------0--0--0----|--4--------|
D|--7--------|-------5--5--5----|--4--------|
A|--9--------|-------7--7--7\5--|--5--------|
E|-----------|--0---------------|-----------|


[ Tab from: http://www.guitartabs.cc/tabs/f/fleetwood_mac/oh_well_tab_ver_5.html ]
E|---------------|---------|--------------|---------|-------|
B|-------0--0----|---------|-----0--0--0--|---------|--0----|
G|-------0--0----|--7------|-----0--0--0--|---------|--0----|
D|-------5--5----|--7------|-----5--5--5--|--4------|--5----|
A|-------7--7/9--|--9------|-----7--7--7--|--5------|--7----|
E|--0------------|---------|--0-----------|---------|-------|



E|-----------------|-------0----|------|-----------|-----------------|
B|-----------------|-------0----|------|------0----|-----------------|
G|--7--7--7--7-----|--7----0----|------|------0----|--7--7--7--7-----|
D|--7--7--7--7-----|--7----5----|------|------5----|--7--7--7--7-----|
A|--9--9--9--9h10--|--9\7--7----|------|------7----|--9--9--9--9h10--|
E|-----------------|-------0----|------|-----------|-----------------|



E|-------0--|------|---------|----------------|-------0--|
B|-------0--|------|---------|--7--7--7--7/8--|--7----0--|
G|--7----0--|------|---------|--7--7--7--7/8--|--7----0--|
D|--7----5--|------|----9----|--9--9--9--9----|--9\7--5--|
A|--9\7--7--|------|----9----|----------------|-------7--|
E|----------|------|----7----|----------------|----------|



E|------|---------|--7--7--7-----|--5----5--|------|------0--|
B|------|---------|--7--7--7-----|--5----5--|------|------0--|
G|------|--7------|--7--7--7-----|--5----5--|------|------0--|
D|------|--9------|--9--9--9--9--|--9\7--7--|------|------5--|
A|------|--9------|--------------|-------0--|------|------7--|
E|------|--7------|--------------|----------|------|---------|



E|-----------------|--5----0--|------|------0--|-----------------|
B|-----------------|--5----0--|------|------0--|-----------------|
G|--7--7--7--7-----|--7----0--|------|------0--|--7--7--7--7-----|
D|--7--7--7--7-----|--7----5--|------|------5--|--7--7--7--7-----|
A|--9--9--9--9h10--|--9\7--7--|------|------7--|--9--9--9--9h10--|
E|-----------------|----------|------|---------|-----------------|
Comments