Fleetwood Mac - Oh Well Chords & Tabs

 

Oh Well Chords & Tabs

Fleetwood Mac Chords & Tabs

Version: 1 Type: Tab 3 ratings
1 star 2 stars 3 stars 4 stars 5 stars
comments

Oh Well Tab

OH WELL by Fleetwood mac.
 
 
 
    
E|----------|--------------------------|-------------------------| 
B|----------|--------------------------|-------------------------| 
G|----------|--------------------------|-------------------------| 
D|----------|----------0-----------2-2-|----------0----2---------| 
A|----------|-------0h2—0h2p0----------|-------0h2-0h2-2---------| 
E|----------|-0h3p0-----------3p0------|-0h3p0---------0—3p0-0---| 
 

E|----------|--------------------------|-------------------------| 
B|----------|--------------------------|-------------------------| 
G|----------|--------------------------|-------------------------| 
D|----------|----------0-----------2-2-|----------0h2p0----------| 
A|----------|-------0h2—0h2p0----------|-------0h2------2p0------| 
E|----------|-0h3p0-----------3p0------|-0h3p0----------—--3p2p0-|

[ Tab from: http://www.guitartabs.cc/tabs/f/fleetwood_mac/oh_well_tab.html ]
    					   “     x4        “	
E|----------|--------------------------|-------------------------| 
B|----------|--------888-------888-----|-------------------------| 
G|----------|--------777-------777-----|-------------------------| 
D|-2--------|-0h2-2--555—-0h2--555-----|-0h2-5p2-0h2-------------| 
A|-2--------|-0h2-2-------0h2----------|-------------------------| 
E|-0--------|-0-0-0-------0-0----------|-------------------------| 
 

E|----------|--------------------------|-------------------------| 
B|----------|--------------------------|-------------------------| 
G|----------|-2--3---------------------|-7-9---------------------| 
D|-0h2-5p2--|--2--2---------------5h7/9|-------------------------| 
A|----------|---------------5-6-7------|-------------------------| 
E|----------|-------3/5-6-7------------|-------------------------|


    Any questions email me at chrisskilt@aol.com
Comments