Fleetwood Mac - Oh Well (part 1) Chords & Tabs

 

Oh Well (part 1) Chords & Tabs

Fleetwood Mac Chords & Tabs

Version: 1 Type: Tab 0 ratings
1 star 2 stars 3 stars 4 stars 5 stars
comments

Oh Well (part 1) Tab

##################################################################################
# This file is the author's own work and represents their interpretation of the  #
# song. You may only use this file for private study, scholarship, or research.  #
##################################################################################


Fleetwood Mac: Oh Well (part 1)
~~~~~~~~~~~~~~~~~~~~~~~~~~~~~~~~~~~
This is a great little classic to add to add to your chops. 
Its actually quite easy once You've polished off the first 2 bars. 
The other versions of oh well on this site are full of unnesecerry 
notes and missing important sections. I promise this is 100% correct.
[ Tab from: http://www.guitartabs.cc/tabs/f/fleetwood_mac/oh_well_part_1_tab.html ]
Play these first two bars fast (hear song)
e|----------------------------------------------------------------------------|
B|----------------------------------------------------------------------------|
G|----------------------------------------------------------------------------|
D|-------------0----------22222---------------0---------2--22222-------|
A|--------0-h2----2-0-----22222----------0-h2----2-0-2-----00000-------|
E|--0--3-------------- 3--00000-----0-3--------------------00000-------|
                           ^play as many times as you see fit^
e|---------------------------------------------------------------------|
B|---------------------------------------------------------------------|
G|---------------------------------------------------------------------| These 2 bars play X 2
D|-------------0----------22222---------------0-h-2-----------22222----|
A|--------0-h2----2-0-----22222----------0-h2-------0-h-2-----00000----|
E|--0--3-------------- 3--00000-----0-3-------------------3---00000----|

                         
e|-------------------------------|
B|-------------------------------|
G|-------------------------------|
D|--------------------(5-5)------|   X 4
A|--5-s-7-7--7-7-7-7--(5-5)------|
E|--0---0-0--0-0-0-0-------------|

e|-----------------------------|
B|-----------------------------|
G|-----------------------------|  X 4
D|---------5-------------------|
A|--5-h-7--5--7---5-h-7v-------|
E|--0---0-----0---0---0v-------|

e|----------------------------------------------------|
B|----------------------------------------------------|
G|---------------------------------------7--8--v9-----|
D|---------5--7--8-------------7--8--9---------(9)----|
A|-5-h-7---5--7--8------7--10-------------------------|
E|-0---0----------------------------------------------|


This should be 100% fine. If it isn't then i'll
butter up my fingers and shove them up a baby baboon.:p
Comments