Fleetwood Mac - My Little Demon Riff Chords & Tabs

 

My Little Demon Riff Chords & Tabs

Fleetwood Mac Chords & Tabs

Version: 1 Type: Tab 0 ratings
1 star 2 stars 3 stars 4 stars 5 stars
comments

My Little Demon Riff Tab

   
#----------------------------------PLEASE NOTE---------------------------------#
#This file is the author's own work and represents their interpretation of the #
#song. You may only use this file for private study, scholarship, or research. #
#------------------------------------------------------------------------------#

My Little Demon
Fleetwood Mac
The Dance
By RZarou@aol.com
[ Tab from: http://www.guitartabs.cc/tabs/f/fleetwood_mac/my_little_demon_riff_tab.html ]
riff 1                          riff2
                                   C5  Bb5
E-----------------------*       E----------*
B-----------------------*       B----------*
G--5-5---3-3---5-5---7-7*       G----------*
D-----------------------*       D--10---8-8*
A-----------------------*       A--10---8-8*
E-----------------------*       E---8---6-6*


riff3
E--5-4-5--5-4-5--5-4-5-4-3-2-0--*
B------------------------------3*
G-------------------------------*
D-------------------------------*
A-------------------------------*
E-------------------------------*

That's basically it.

Comments