Fleetwood Mac - Landslide Chords & Tabs

 

Landslide Chords & Tabs

Fleetwood Mac Chords & Tabs

Version: 1 Type: Tab 0 ratings
1 star 2 stars 3 stars 4 stars 5 stars
comments

Landslide Tab

   
##################################################################################
# This file is the author's own work and represents their interpretation of the  #
# song. You may only use this file for private study, scholarship, or research.  #
##################################################################################

Fleetwood Mac
Landslide
(Stevie Nicks)

A few notes:

 * Most of the song uses a picking pattern a lot like the intro; there is
   some variation.
 * The easiest way is to break the song down into the chords and play them one
   after another
 * The song is done in regular tunning (EADGBE) with a capo at the 3rd fret.
 * Use whichever fingering works best for you.
 * I am not done with tabbing the song out, but this will help out quite alot.
   Please e-mail me if anyone has figured out any more to it, if not I am 
   still going to work on it and keep posting the updated one here.
 * impish21@yahoo.com for any bitches, moans, concerns, complaints, or criticism

[INTRO:]

  C                G/B              Am7              G/B
E ----------------|----------------|----------------|----------------|
B ------1---------|------3---------|------1---------|------3---------|
G --0-------0-----|--0-------0-----|--0-------0-----|--0-------0-----|
D ----2-------2---|----0-------0---|----2-------2---|----0-------0---|
A 3-------3-------|2-------2-------|0-------0-------|2-------2-------|
E ----------------|----------------|----------------|----------------|


C                G/B              Am7              G/B
E ----------------|----------------|----------------|----------------|
B ------1---------|------3---------|------1---------|------3---------|
G --0-------0-----|--0-------0-----|--0-------0-----|--0-------0-----|
D ----2-------2---|----0-------0---|----2-------2---|----0-------0---|
A 3-------3-------|2-------2-------|0-------0-------|2-------2-------|
E ----------------|----------------|----------------|----------------|
     

 C                G/B              Am7              G/B
E ----------------|----------------|----------------|----------------|
B ------1---------|------3---------|------1---------|------3---------|
G --0-------0-----|--0-------0-----|--0-------0-----|--0-------0-----|
D ----2-------2---|----0-------0---|----2-------2---|----0-------0---|
A 3-------3-------|2-------2-------|0-------0-------|2-------2-------|
E ----------------|----------------|----------------|----------------|
   
[ Tab from: http://www.guitartabs.cc/tabs/f/fleetwood_mac/landslide_tab.html ]
 C                G/B              Am7              G/B
E ----------------|----------------|----------------|----------------|
B ------1---------|------3---------|------1---------|------3---------|
G --0-------0-----|--0-------0-----|--0-------0-----|--0-------0-----|
D ----2-------2---|----0-------0---|----2-------2---|----0-------0---|
A 3-------3-------|2-------2-------|0-------0-------|2-------2-------|
E ----------------|----------------|----------------|----------------|
  

 C                G/B              Am7              G/B
E ----------------|----------------|---------------------------------|
B ------1---------|------3---------|------1---1---0---3--------------|
G --0-------0-----|--0-------0-----|--0-----------------0------------|
D ----2-------2---|----0-------0---|----2---------2-------2-----0----|
A 3-------3-------|2-------2-------|0-------0---------3------3-------|
E ----------------|----------------|---------------------------------|
 

 C                G/B              Am7              G/B
E ----------------|----------------|---------------------------------|
B ------1---------|------3---------|----1-1/0---3--------------------|
G --0-------0-----|--0-------0-----|--0-------2----------------------|
D ----2-------2---|----0-------0---|------2--------------------------|
A 3-------3-------|2-------2-------|0---------0----------------------|
E ----------------|----------------|---------------------------------|
  

 C                G/B              Am7              G/B
E ------0---------|------3---------|------3---------|------3---------|
B ----------------|----------------|----------------|----------------|
G --0-------0-----|--0-------0-----|--0-------0-----|--0-------0-----|
D ----2-------2---|----0-------0---|----2-------2---|----0-------0---|
A 3-------3-------|2-------2-------|0-------0-------|2-------2-------|
E ----------------|----------------|----------------|----------------|
  

 C                G/B              Am7              G/B
E 3-----3---------|------3---------|------3---------|------3---------|
B ----------------|3---------------|1---------------|3---------------|
G --0-------0-----|--0-------0-----|--0-------0-----|--0-------0-----|
D ----2-------2---|----0-------0---|----2-------2---|----0-------0---|
A 3-------3-------|2-------2-------|0-------0-------|2-------2-------|
E ----------------|----------------|----------------|----------------|


 C                G/B              Am7              G/B
E 3-----3---------|------3---------|------3---------|------3---------|
B ----------------|3---------------|1---------------|3---------------|
G --0-------0-----|--0-------0-----|--0-------0-----|--0-------0-----|
D ----2-------2---|----0-------0---|----2-------2---|----0-------0---|
A 3-------3-------|2-------2-------|0-------0-------|2-------2-------|
E ----------------|----------------|----------------|----------------|
Comments