Fleetwood Mac - Landslide Solo Chords & Tabs

 

Landslide Solo Chords & Tabs

Fleetwood Mac Chords & Tabs

Version: 1 Type: Tab 0 ratings
1 star 2 stars 3 stars 4 stars 5 stars
comments

Landslide Solo Tab

Landslide guitar solo
I think this is almost perfect. I spent alot of time on it and it 
really sounds great. E-mail me at impish21@yahoo.com for anything.
***Use a Capo on the 3rd fret*** 


----------------------------------------------------------------
----------0--3-----------3/\5---3-----0-------------------------
-------0H2----------------------------------2--0----------02--0-
----0-----0-----0-----0------0-----0-----0-----0-----0-----0----
-3-----3-----2-----2-----0------0-----2-----2-----3-----3-----2-
----------------------------------------------------------------

[ Tab from: http://www.guitartabs.cc/tabs/f/fleetwood_mac/landslide_solo_tab.html ]
----------------------3-3-----2-----0---------------------------
----------------1-----------------3------------0--3-----------3/
-------------------0------------------------0H2-----------------
-0-----0-----0-----0------0-------0------0-----0-----0-----0----
----2H3---0-----0-----2-------2-------3-----3-----2-----2-----0-
----------------------------------------------------------------


-------------------------------------------------323-3/5\3-23-2H
\5---3-----0-----------------------------------1----------------
-----------------2--0----------02--0----------------------------
--0-----0-----0-----0-----0-----0-----0-----0-----------------0-
-----0-----2-----2-----3-----3-----2-----2-----0-----0----------
----------------------------------------------------------------


0-0------
-3-31----
-----20--
---0-----
---------
---------



Comments