Fleetwood Mac - Landslide Live Chords & Tabs

 

Landslide Live Chords & Tabs

Fleetwood Mac Chords & Tabs

Version: 1 Type: Tab 0 ratings
1 star 2 stars 3 stars 4 stars 5 stars
comments

Landslide Live Tab

   
----------------------------------------------------------------------------
			     Landslide Live - Fleetwood Mac
----------------------------------------------------------------------------
Tabbed by:MC
Email:mcdaddy0945@aol.com

Tuning: Standard   Capo 3rd Fret *all notes relative to Capo

This is one of my favorite acoustic songs, but I have only heard the live version (on
PBS) in my life and when i tried to learn the solo I found some differences in the live
version and the version that is tabbed out...here is how i play it based on the LIVE
version it is 100 percent correct


Riff A

e|-------------------------------------------------------------------------|
B|-------------0--3--3---3---0h3---3/5--5--3--3---0------------------------|
G|--------0h2----------2---2--------------------------0h2--2---0-----------|
D|-----0-------0-------------------0----0--0-------------------0-----------|
A|--3-----3----------3---3------------------------0h2------2---------------|
E|-------------------------------------------------------------------------|
[ Tab from: http://www.guitartabs.cc/tabs/f/fleetwood_mac/landslide_live_tab.html ]
e|------------------------------------------------------------------|
B|-----------------------------------1p0-1p0---3---1----0h1---------|
G|------------0-2-0--------------------------0---0---0--------------|
D|------0-----0-0-0----0------0-------------------------------------|
A|---3----3----------3----2h3----0---0---0-----0--------0-----------|
E|------------------------------------------------------------------|

 Riff B                        
e|-------------------------------------------------------------------------|
B|-------------0--3--3---3---0h3---3/5--5--3--3---0------------------------|
G|--------0h2----------2---2--------------------------0h2--2---0-----------|
D|-----0-------0-------------------0----0--0-------------------0-----------|
A|--3-----3----------3---3------------------------0h2------2---------------|
E|-------------------------------------------------------------------------|


e|-------------------------------------3-2-3-3\5-3-2-3--2p0----0----------| 
B|-----------------------------------------------------------3---3p1-0----|
G|------------0-2-0-----------------------------------------------------2-|
D|------0-----0-0-0----0------0-------------------------0-----------------|
A|---3----3----------3----2h3------------------------------------0--------|
E|------------------------------------------------------------------------|

END SOLO    

*Remember i have never heard the recorded version of the song so it may or may not be the same...

PEACE
Comments