Fleetwood Mac - I'm So Afraid Chords & Tabs

 

I'm So Afraid Chords & Tabs

Fleetwood Mac Chords & Tabs

Version: 1 Type: Tab 0 ratings
1 star 2 stars 3 stars 4 stars 5 stars
comments

I'm So Afraid Tab

   
#----------------------------------PLEASE NOTE--------------------------------#
#This file is the author's own work and represents their interpretation of the#
#song. You may only use this file for private study, scholarship, or research.#
#-----------------------------------------------------------------------------#

Song: I'm So Afraid
Group: Fleetwood Mac
CD: The Dance
Tabber: MZarou@aol.com (formally known as RZarou@aol.com)


   F5  Cm5  Bb5   C5   Db5
E-------------------------*
B-------------------------*
G------------3----5----6--*
D--3----5----3----5----6--*
A--3----3----1----3----4--*
E--1----3-----------------*

Verse 1

Chorus

1st solo:
(I Don't know if Lindsey plays it this way exactly, but it plays
somewhat easily and it sounds perfect.)

E-------------*------8s9s8--8-------*------------*
B-------------*-9s11----------11-9--*-9----------*
G-10----------*---------------------*------------*
D-------------*---------------------*------------*
A-------------*---------------------*------------*
E-------------*---------------------*------------*
[ Tab from: http://www.guitartabs.cc/tabs/f/fleetwood_mac/im_so_afraid_tab.html ]
E-------------------*------------*----------------------*
B-9-8-9-11-9--9s8---*------------*--------8-------------*
G-----------------8-*10----------*10-8-10---10--10-8----*
D-------------------*------------*-------------------10-*
A-------------------*------------*----------------------*
E-------------------*------------*----------------------*

E-------------*-----------------*------------*
B---------13--*13---13----------*------------*
G-------------*----------15--13-*------------*
D-10----------*-----------------*15----------*
A-------------*-----------------*------------*
E-------------*-----------------*------------*

E--------------------------*-------------*------------------------*
B------13h14-13---13-------*-------------*------------------------*
G13h15---------------15-13-*13-----------*13-12-13-15-13--13s12---*
D--------------------------*----15-13-11-*----------------------13*
A--------------------------*-------------*------------------------*
E--------------------------*-------------*------------------------*

E----------------*-----------------------------*------------*
B----------------*-----------------------------*------------*
G-----13---------*---------12------------------*-----13---15*
D-15-----13-15---*15-13-15----15-15-13-------13*15------13--*
A----------------*---------------------16s15---*------------*
E----------------*-----------------------------*------------*

Verse 2

Chorus

2nd Solo:
Repeat the first solo and then he goes off into a bigger solo in which
i haven't tabbed out yet.  I'll do it in a couple of days.
Comments