Fleetwood Mac - Im So Afraid Live Chords & Tabs

 

Im So Afraid Live Chords & Tabs

Fleetwood Mac Chords & Tabs

Version: 1 Type: Tab 0 ratings
1 star 2 stars 3 stars 4 stars 5 stars
comments

Im So Afraid Live Tab

#-----------------------------------------------------------------------------#
#-- File created with Instab - http://www.pconline.com/~smcarey/instab.html --#
#-----------------------------------------------------------------------------#

Author/Artist: Fleetwood Mac
Title: I'm So Afraid Live
Album: The Dance
Transcribed by: brandon ian jones
Email: BrandonJones1979@hotmail.com

The outro solo is nigh impossible to tab.  Someone watch the DVD and help me!
!

------------------------------------------------------------------------------
-------1b------------1b-----------------1b-------------1b---------------------
-------1b------------1b------3-3bp1-----1b-------------1b---------------------
--3v------------3-3-----------------3v----------3-3-3-------------------------
------------------------------------------------------------------------------
------------------------------------------------------------------------------
                                                                              

-------4p3p1-----1h3------------------------1----4p3p1---1h3------------------
-1h4----------1------4p3p1-----------1b-------1--------1-----4p3p1------------
---------------------------4p3p1-----1b----------------------------4p3p1------
---------------------------------3v--------------------------------------3v---
------------------------------------------------------------------------------
------------------------------------------------------------------------------
                                                                              

----------------1---------1---------1----------4------------------------------
--1b----------1---4-----1---4-----1---4-----4b---4---1-------------1b----3----
--1b------1h3-------1h3-------1h3-------1h3--------3---3p1---------1b----3----
-------------------------------------------------------------3-3------3-------
------------------------------------------------------------------------------
------------------------------------------------------------------------------
                                                                              

------------------------------------------------------------------------------
----1--3--3b--3b---------1--3b-3b------------3b-----------1b--------1b--------
----1--3--3b--3b------3--1--3b-3b---3-3b-1---3b--3p1------1b--------1b--------
-3----------------3------------------------3-----------3-------3-3-------3-3--
------------------------------------------------------------------------------
------------------------------------------------------------------------------
                                                                              

------------------------------------------------------------------------------
-1b---------------------------------------------------------------------------
-1b---------------------------------------------------------------------------
--------3---------------------------------------------------------------------
------------------------------------------------------------------------------
------------------------------------------------------------------------------
            guitar abruptly stops on that note...and then the heavy chords... 
[ Tab from: http://www.guitartabs.cc/tabs/f/fleetwood_mac/im_so_afraid_live_tab.html ]
------------------------------------------------------------------------------
------------------------------------------------------------------------------
------------------------------------------------------------------------------
-3-3-3--3--3-3-3-3-3---5-5-5---3-3-3-3-3v---3-3-3-3-3--3-3-3-3-3-3---5-5-5----
-3-3-3--3--1-3-1-3-3---3-3-3---3-3-1-3-3v---3-1-3-3-3--3-1-3-1-3-3---3-3-3----
-1-1-1--1--1-1-1-1-1---3-3-3---1-1-1-1-1v---1-1-1-1-1--1-1-1-1-1-1---3-3-3----
                                                                              

------------------------------------------------------------------------------
------------------------------------------------------------------------------
------------------------------------------------------------------------------
-3-3-3-3-3--------------------------------------------------------------------
-3-3-1-3-3--------------------------------------------------------------------
-1-1-1-1-1--------------------------------------------------------------------
 Repeat these chords during the 1st and 2nd verse.                            

------------------------------------------------------------------------------
------------------------------------------------------------------------------
----------------6v---6\-3--3/-5--5--------------------------------------------
----------------6v---6\-3--3/-5--5---3-3-3-3-3v-------------------------------
----------------4v---4\-1--1/-3--3---3-3-3-1-3v-------------------------------
-------------------------------------1-1-1-1-1v-------------------------------
 the way I feel...                              black as night...repeat riff  

-----------4h6--8-8b--8p6---4-4v----4-3-4--4b-4--4p3--------------------------
--4h6v-----------------------------------------------4-4/6v----6p4--6-6b6-----
------------------------------------------------------------------------------
------------------------------------------------------------------------------
------------------------------------------------------------------------------
------------------------------------------------------------------------------
                                                                              

---------------6b6b6b-6--4--------------4h6--8-8b--8p6--4-4v-----------4\3----
--6p4-----------------------6p4-6-6v-------------------------6-4--------------
-------5--5v------------------------------------------------------6v----------
------------------------------------------------------------------------------
------------------------------------------------------------------------------
------------------------------------------------------------------------------
                                                                              

-4-4b4--4p3--------4----------------------------------------------------------
------------4-4/6-----6v---6p4--6-6b6--6p4--4h6-6v-/-9v-/-11v-----------------
------------------------------------------------------------------------------
------------------------------------------------------------------------------
------------------------------------------------------------------------------
------------------------------------------------------------------------------
    The 3 staves above is the "mini" solo between verses.                     

Comments