Fleetwood Mac - Gypsy Chords & Tabs

 

Gypsy Chords & Tabs

Fleetwood Mac Chords & Tabs

Version: 1 Type: Bass Tab 0 ratings
1 star 2 stars 3 stars 4 stars 5 stars
comments

Gypsy Bass Tab

   
Gypsy.btab
Fleetwood Mac
TablEdited by Poppamies
Tuning : E A D G 	Time Signature: 4/4

 tempo 132       |       |        |       |       |       |        
|--------------------------------|--------------------------------|
|--------------------------------|--------------------------------|
|--------------------------------|--------------------------------|
|1-----------1---1---------------|1-----------1---1---------------|

 |       |       |       |        |       |       |       |        
|--------------------------------|--------------------------------|
|--------------------------------|--------------------------------|
|--------------------------------|----------------3/--5---3-----2-|
|1-----------1---1---------------|1-------1---1-------------------|

 |       |       |       |        |       |       |       |        
|--------------------------------|--------------------------------|
|--------------------------------|--------------------------------|
|1-----------1---1-------0-------|3-----------3---3-----------3---|
|----------------------------3---|--------------------------------|

 |       |       |       |        |       |       |       |        
|--------------------------------|--------------------------------|
|--------------------------------|--------------------------------|
|1-----------1---1-------0-------|3-----------3---3---3-----0-----|
|----------------------------3---|----------------------------3---|

 |       |       |       |        |       |       |       |        
|--------------------------------|--------------------------------|
|--------------------------------|--------------------------------|
|--------------------------------|--------------------------------|
|1-----------1---1-----------1---|1-----------1---1---1-------1---|
[ Tab from: http://www.guitartabs.cc/tabs/f/fleetwood_mac/gypsy_btab.html ]
 |       |       |       |        |       |       |       |        
|--------------------------------|--------------------------------|
|--------------------------------|--------------------------------|
|--------------------------------|------------------------0---0---|
|1-----------1---1---1-------1---|1-----------1---3---------------|

 |       |       |       |        |       |       |       |        
|--------------------------------|--------------------------------|
|--------------------------------|--------------------------------|
|1-----------1---1---1---0-------|3-----------3---3-----------3---|
|----------------------------3---|--------------------------------|

 |       |       |       |        |       |       |       |        
|--------------------------------|--------------------------------|
|--------------------------------|--------------------------------|
|1---------------1---1-------1---|3-----------3---3---3-----0-----|
|--------------------------------|----------------------------3---|

 |       |       |       |        |       |       |       |        
|--------------------------------|--------------------------------|
|--------------------------------|--------------------------------|
|--------------------------------|--------------------------------|
|1-----------1---1---1-------1---|1-----------1---1---1-------1---|

 |       |       |       |        |       |       |       |        
|--------------------------------|--------------------------------|
|--------------------------------|--------------------------------|
|--------------------------------|----------------3/--5---3---3---|
|1-----------1---1---1-------1---|1-------1---1-------------------|

 |       |       |       |        |       |       |       |        
|--------------------------------|--------------------------------|
|--------------------------------|--------------------------------|
|1-----------1---1---1---0-------|3-----------3---3---3-------3---|
|----------------------------3---|--------------------------------|

 |       |       |       |        |       |       |       |        
|--------------------------------|--------------------------------|
|--------------------------------|--------------------------------|
|1-----------1---1---1---0-------|3-----------3---3---3-------3---|
|----------------------------3---|--------------------------------|


Created with TablEdit http://www.tabledit.com/
Comments