Fleetwood Mac - Gold Dust Woman Chords & Tabs

 

Gold Dust Woman Chords & Tabs

Fleetwood Mac Chords & Tabs

Version: 2 Type: Bass Tab 0 ratings
1 star 2 stars 3 stars 4 stars 5 stars
comments

Gold Dust Woman Bass Tab

Gold Dust Woman - Fleetwood Mac

  intro    verse 1                 "Rock on Gold Dust Woman.."    
G|--------|-----------------------------------------------------|
D|--------|--------------------------5-5-------------5----------|
A|5----5--|--5-5-5-5---5-5-5-5---5-5-----543-3-21-----765-5-5-5-|
E|---35---|35--------35--------35----------------3-3------------|

   "lousy lovers.."
G|---------------------------------|
D|-----5-------------------5-------|
A|--5-5-5-3-3-543-3-21----3-5-5-5-5|
E|35-----3------------3-3----------|
[ Tab from: http://www.guitartabs.cc/tabs/f/fleetwood_mac/gold_dust_woman_btab_ver_2.html ]
  chorus riff "Well did she make you cry.."
G|------------------------------|
D|---8\-----8\-----8\-----------|
A|5/7--1-5/7--3-5/7--3-3-3-3-5--|
E|------------------------------|

this is played just before the verse comes back in, and repeatedly at the end
G|----------------|
D|----------------|
A|(7)/88754----5--|
E|---------5435---|

  verse 2 riff
G|--------------------------------|
D|--------------------------------|
A|--5-5-----543-3-21------5-5-5-5-|
E|35----3-3---------3-3-35--------|

tabbed by Achilles (blue_sincere@hotmail.com)
Comments