Fleetwood Mac - Go Your Own Way Chords & Tabs

 

Go Your Own Way Chords & Tabs

Fleetwood Mac Chords & Tabs

Version: 1 Type: Tab 0 ratings
1 star 2 stars 3 stars 4 stars 5 stars
comments

Go Your Own Way Tab

   
#----------------------------------PLEASE NOTE---------------------------------#
#This file is the author's own work and represents their interpretation of the #
#song. You may only use this file for private study, scholarship, or research. #
#------------------------------------------------------------------------------#


Date: Wed, 31 Dec 1997 16:46:52 -0600
From: mleague@mindspring.com
To: guitar@olga.net
Subject: TAB: Go Your Own Way by Fleetwood Mac

Go Your Own Way
by: Fleetwood Mac
from: Rumours (originally)
this version from: The Dance
transcribed by: Kevin League (mleague@mindspring.com)

I think this song has been posted before, but I 
haven't used any of those tabs.  I figured this out all by myself.  
There are 2 guitar parts in this song: Lindsey and a rhythm guitarist(who, 
if you look closely is off to the back of the stage).  I'll transcribe both.

Lindsey's chords:
F5:133XXX
C5:X355XX
Bb5:X133XX
Dm:X5776X

Rhythm guitarists chords:
capo VIII (all chords relative to capo)

A:X02220
Asus2:X02200
E:022100
D:XX0232
Dsus2:XX0230
F#m:244222

Verse 1

Verse 2:(same pattern as verse 1)

Chorus

b-bend
f-full
h-hold
r-release

mini solo: (listen to cd for timing)
e--------------------------------------------------------------1--1----
B--------------------------------------------------------------1--1----
G---------------------0-2-0---3--------------------0-2-0---0-2---2-----
D---3(let ring)-----3-------3-3(let Bb ring)-----3-------3-------------
A---------------3-5-----------1--------------3-5-----------------------
E----------------------------------------------------------------------

e--1--1--1--1--------------------------------------------|
B--1--1--1--1--------0-2-0---3---------------------------|
G-2--2--2--2-------3-------3-3(let Bb ring)-----3-3---3--|
D--------------3-5-----------1--------------3-5-----5---5|
A--------------------------------------------------------|
E--------------------------------------------------------|
(Chorus 2x)

Big solo:(rhythm plays chorus chords over entire solo)

|=these are breaks that indicate a section that needs to be repeated
e----------------------------------------------------------------------
B----------------------------------------------------------------------
G----------------------------------------------------------------------
D---------3-------------3---3-5-3-5bf-3-5-5-3-5bf-3---------3-------3--
A-5-5-3-5---5-5-5-5-3-5---5-------------------------5-5-3-5---5-5-5----
E----------------------------------------------------------------------

e----------------------------------------------------6-----------------
B--------------------8bfh(pick for 4 measures)-6-8bfh-(repeat for 4 
G----------------------------------------------------------------------
D-5(b full)-5b-5b-5b---------------------------------------------------
A---------------------------------------------------------------------
E----------------------------------------------------------------------
[ Tab from: http://www.guitartabs.cc/tabs/f/fleetwood_mac/go_your_own_way_tab.html ]
e-----------10(pick using vibrato for 4 measures)-13bf-10----10-13bf-10
B-measures)-----------------------------------------------13-----------
G----------------------------------------------------------------------
D----------------------------------------------------------------------
A----------------------------------------------------------------------
E----------------------------------------------------------------------

e----10-13bf-10----10-13bf-10----10-13bf-10-13-10----13-10----13-10----
B-13------------13------------13------------------13-------13-------13-
G----------------------------------------------------------------------
D----------------------------------------------------------------------
A----------------------------------------------------------------------
E----------------------------------------------------------------------

e-13-10----13-10----13-10----13-10----|13bf-13-10h13(hammer on a few X 
B-------13-------13-------13-------13----------------------------------
G----------------------------------------------------------------------
D----------------------------------------------------------------------
A----------------------------------------------------------------------
E----------------------------------------------------------------------

e then repeat)-13bf-10-10-13bfr-15-15bf-13-|-----15-17-15--------------
B------------------------------------------|15-15---------18-15(repeat
G----------------------------------------------------------------------
D----------------------------------------------------------------------
A----------------------------------------------------------------------
E----------------------------------------------------------------------

e----15(pick w/vibrato 1 measure)-17(pick w/vibrato 1 measure)-15 bf(
B4X)-------------------------------------------------------------------
G----------------------------------------------------------------------
D----------------------------------------------------------------------
A----------------------------------------------------------------------
E----------------------------------------------------------------------

e keep bending for 4 measures) For a little while here, Lindsey mixes
B----------------------------- between bending the "e" on the 15th fret
G----------------------------- with hammer ons from 13th to 15th fret on 
D----------------------------- the "e" string, then the final riff
A-----------------------------
E-----------------------------

e-------------------|
B-------------------|
G-------------------|
D-0-0-2-3-2-0-------| play this riff 3x, then end on a big C5 
A-------------0-1-3-| (rhythm plays chorus chords over this riff and 
E-------------------|  ends on an E chord)

That's about it.  Again, you'll need to listen to the cd for timing.  
There might be a few notes that I left out, but he goes into some fast 
hammer ons that would be VERY tedious to tab out, but I'm sure you'll be 
able to figure them out.  Remember, Lindsey plays w/his fingernail and not 
a pick, so use yer fingernails to get some of the squeals and harmonics he 
gets.  Have fun!
Comments