Fleetwood Mac - Everywhere Chords & Tabs

 

Everywhere Chords & Tabs

Fleetwood Mac Chords & Tabs

Version: 1 Type: Tab 0 ratings
1 star 2 stars 3 stars 4 stars 5 stars
comments

Everywhere Tab

   
#----------------------------------PLEASE NOTE---------------------------------#
#This file is the author's own work and represents their interpretation of the #
#song. You may only use this file for private study, scholarship, or research. #
#------------------------------------------------------------------------------#
#

Date: Thu, 15 Jan 1998 09:28:04 -0500 (EST)
From: RZarou 
Subject: Fleetwood Mac: Everywhere

Fleetwood Mac-Everywhere
Tango In The Night/Greatest Hits
RZarou

Chords Used

   Bb   C    Dm
E--1----0----1--*
B--3----1----3--*
G--3----0----2--*
D--3----2----0--*
A---------------*
E---------------*

Interlude
Dm C Bb Dm (Repeat 4x, end on Dm)

[ Tab from: http://www.guitartabs.cc/tabs/f/fleetwood_mac/everywhere_tab.html ]
Verse/Chorus
E--------------------*--------------------*--------------------*
B--------------------*--------------------*--------------------*
G------------0-------*------------0-------*------------0-------*
D--3--3-3-3---------0*--3--3-3-3---------0*--3--3-3-3---------0*
A--------------3--3--*--------------3--3--*--------------3--3--*
E--------------------*--------------------*--------------------*

E---------------*
B---------------*
G--0-0----------*
D---------------*   Play this throughout the verses and chorus, or
A------3--1--1-3*   or you can play the chords during the chorus.
E---------------*

Chorus (This is played by Christine, but it can be played on the guitar)

C C C Dm

Bb Bb Dm C

Dm Dm Bb C

Bb Dm C

C C C Dm

Bb Dm C

Dm Dm C Bb

Bb Bb Dm C C

------------
Comments