Fleetwood Mac - Dont Stop Chords & Tabs

 

Dont Stop Chords & Tabs

Fleetwood Mac Chords & Tabs

Version: 2 Type: Bass Tab 0 ratings
1 star 2 stars 3 stars 4 stars 5 stars
comments

Dont Stop Bass Tab

   
-----------------------------------------------------------------------------
                             Don't Stop - Fleetwood Mac
-----------------------------------------------------------------------------

Tabbed by: Country Bass
E-mail: aaron.white8@education.nsw.gov.au

Tuning: Standard

Intro


G|--------------|
D|--------------|
A|--------------|
E|--00000000000-|

G|--------------------------------------------|
D|--------------------------------------------|
A|--------------------------------------------| x2
E|0--0--0-0-0--0--0-0-0--0--0-0-0--0--0-0-000-|

Verse

G|-------------------------------------------|
D|-------------------------------------------|
A|------------5--5--5-5-0--0--0-0-0--0--0-0--| x3
E|--0--0--0-0--------------------------------|

G|------------------------------------------|
D|------------------------------------------|
A|--1--1-1-1--1--1-1-1--1--1-1-1--1--1-1-1--|
E|------------------------------------------|

Chorus 2

G|-------------------------------------------|
D|-------------------------------------------|
A|------------5--5--5-5-0--0--0-0-0--0--0-0--| x3
E|--0--0--0-0--------------------------------|
[ Tab from: http://www.guitartabs.cc/tabs/f/fleetwood_mac/dont_stop_btab_ver_2.html ]
G|------------------------------------------|
D|------------------------------------------|
A|--1--1-1-1--1--1-1-1--1--1-1-1--1--1-1-1--| x2
E|------------------------------------------|

Chorus 5

G|------------------------------------------------------------------------|
D|------------------------------------------------------------------------|
A|------------5--5--5-5-0--0--0-0-0--0--0-0-----------5--5--5-5----00000--| 
E|--0--0--0-0-------------------------------0--0--0-0---------------------|

G|---------------------------------------------------------------------------------|
D|---------------------------------------------------------------------------------|
A|-----------5--5--5-5-0--0--0-0-0--0--0-0--1--1-1-1--1--1-1-1--1--1-1-1--1--1-1-1-| 
E|-0--0--0-0-----------------------------------------------------------------------|



Playing Order

Intro
Verse x3
chorus 2 X2
Verse
Chorus 5
Chorus x3 (until fade out)


If you want to mix it up a bit is the song seems too simple, chuck in some riffs and fills
This is one that works really well


G|------------------------------------------|
D|------------------------------------------|
A|------------5--6-5-4-0--0--0-0-0--0--0-0--| 
E|--0--0--0-0-------------------------------|



Have Fun


| /  slide up
| \  slide down
| h  hammer-on
| p  pull-off
| ~  vibrato
| +  harmonic
| x  Mute note
=============================================================================
Comments