Fleetwood Mac - Big Love Correct Chords & Tabs

 

Big Love Correct Chords & Tabs

Fleetwood Mac Chords & Tabs

Version: 1 Type: Tab 1 rating
1 star 2 stars 3 stars 4 stars 5 stars
comments

Big Love Correct Tab

tab in relevance to the capo on 4th fret



Verse

E------------------*------------------*------------------*------------------*

B------------------*------------------*------------------*------------------*

G-------2----------*--------2---------*-2----------------*-2----------------*

D-0-2--------------*-0-2--------------*--------2---------*---------2--------*

A-0----0----0----0-*-0----0----0----0-*------------------*------------------*

E------------------*------------------*-3----3----3----3-*-3----3----3----3-*



E------------------*------------------*------------------*------------------*

B------------------*------------------*------------------*------------------*

G-------2----------*--------2---------*-2----------------*-2----------------*

D-0-2--------------*-0-2--------------*--------2---------*--------2---------*

A------------------*------------------*------------------*------------------*

E-1----1----1----1-*-1----1----1----1-*-0----0----0----0-*-0----0----0----0-*



Chorus

E------------------*------------------*------------------*-----------0------*

B------------------*------------------*----------------0-*-1----3-----------*

G------------------*------------------*-2----------------*------------------*

D-0------3---------*--------2---------*--------2---------*------------------*

A----3-------------*-0-2--------------*-0----0----0----0-*-0----0----0----0-*

E-1----1----1----1-*-0----0----0----0-*------------------*------------------*



E-1-0--------------*-1-0--------------*------------------*------------------*

B--------3-------1-*--------3-----1-0-*------------------*------------------*

G------------------*------------------*-2------2-------0-*-2----------------*

D-0----0----0----0-*-2----2----2----2-*------------------*------------------*

A------------------*------------------*-0----0----0----0-*-0----0----0----0-*

E------------------*------------------*------------------*------------------*



E------------------*------------------*------------------*----------------0-*

B------------------*------------------*----------------0-*----1------3------*

G------------------*------------------*-2-------2--------*------------------*

D-0------3---------*--------2---------*------------------*----------------3-*

A----3-------------*-0--2-------------*-0----0----0----0-*-0----0----0------*

E-1----1----1----1-*-0----0----0----0-*------------------*------------------*



E------------------*------------------*------------------*------------------*

B---3------------1-*-0-------1------0-*------------------*------------------*

G------------------*------------------*-2------2-------0-*-2----------------*

D-3----3----3----3-*-2----2----2----2-*------------------*------------------*

A------------------*------------------*-0----0----0----0-*-0----0----0----0-*

E------------------*------------------*------------------*------------------*



Solo (/ = bend 1/2tone)

   /              /                      /              /
[ Tab from: http://www.guitartabs.cc/tabs/f/fleetwood_mac/big_love_correct_tab.html ]
E-8------5-------8-*----5------8----5-*-8-------5------8-*----5------8----5-*

B------------------*------------------*------------------*------------------*

G------------------*------------------*------------------*------------------*

D-0----0----0------*------------------*------------------*------------------*

A------------------*------------------*-0----0----0----0-*-0----0----0----0-*

E----------------0-*-0----0----0----0-*------------------*------------------*



   /                     /      /    /

E-8-------5------8-*----8------8----8-*-5-------5--------*-5----------------*

B------------------*------------------*----------------8-*------------------*

G------------------*------------------*------------------*------------------*

D-0----0----0------*------------------*------------------*------------------*

A------------------*------------------*-0----0----0----0-*-0----0----0----0-*

E----------------0-*-0----0----0----0-*------------------*------------------*



E------------------*------------------*-0-------1------3-*----1------0------*

B--------0-------1-*----0------1----3-*------------------*----------------1-*

G-2-----------2----*------------------*------------------*------------------*

D-3----3----3----3-*-2----2----2----2-*----------------3-*-3----3----3----3-*

A------------------*------------------*-3----3----3------*------------------*

E------------------*------------------*------------------*------------------*



E--------0---------*------------------*------------------*------------------*

B-3--------------3-*----1------1----0-*------------------*------------------*

G-------------0----*--------0---------*-2-------2------0-*--2---------------*

D------------------*------------------*------------------*--0----0----0----0*

A-2----2----2----2-*------------------*-0----0----0----0-*------------------*

E------------------*-0----0----0----0-*------------------*------------------*



Bridge

E--------0---*--------0---*--------0--*--------0---*--------0---*--------0--*

B----0-------*----0-------*----0------*----0-------*----0-------*----0------*

G------5-----*------5-----*------5----*------4-----*------4-----*------4----*

D--7-------7-*--7-------7-*--7--------*--5-------5-*--5-------5-*--5--------*

A------------*------------*-----------*------------*------------*-----------*

E------------*------------*-----------*------------*------------*-----------*



E--------0---*--------0---*--------0--*--------0---*--------0---*--------0--*

B----0-------*----0-------*----0------*----0-------*----0-------*----0------*

G------2-----*------2-----*------2----*------4-----*------4-----*------4----*

D--3-------3-*--3-------3-*--3--------*--5-------5-*--5-------5-*--5--------*

A------------*------------*-----------*------------*------------*-----------*

E------------*------------*-----------*------------*------------*-----------*





Verse 1

(Play "Verse")



Chorus

(Play "Chorus")



Verse 2

(Play "Verse")



Chorus

(Repeat "Chorus")



Bridge

(Play "Bridge")



Chorus

(Repeat "Chorus" 2x)

Comments