Fleetwood Mac - Albatross Chords & Tabs

 

Albatross Chords & Tabs

Fleetwood Mac Chords & Tabs

Version: 3 Type: Tab 0 ratings
1 star 2 stars 3 stars 4 stars 5 stars
comments

Albatross Tab

   
This tab is on here allread. its just that i put in the 
little guitarparts inbetween too. they are the ones with the
slides. listen to the song and you'll get what i mean.

robstar : email : partypopper7@hotmail.com

Fleetwood Mac - Albatross

Section A – Guitar 1 
E|---|-5--4--------------5--4-|------------------------|
B|---|-5--4--------------5--4-|------------------------|
G|---|-6--4--------------6--4-|------------------------|
D|---|-7--6--------------7--6-|------------------------|
A|-2-|------------------------|-------------------2----|
E|---|-0--0--0--0--0--0--0--0-|-0--0--0--0--0--0--0--0-|

E|-5--4--------------5--4-|------------------------|
B|-5--4--------------5--4-|------------------------|
G|-6--4--------------6--4-|------------------------|
D|-7--6--------------7--6-|-------------------2----|
A|------------------------|-------------2h-4-----4-|
E|-0--0--0--0--0--0--0--0-|-0--0--0--0--0--0--0--0-|
 

E|------------------------|------------------------|
B|------------------------|------------------------|
G|------------------------|------------------------|
D|-6--4-------------------|-6--4-------------------|
A|-------------------4--4-|-------------------4--4-|
E|-2--2--2--2--2--2--2--2-|-2--2--2--2--2--2--2--2-|


E|------------------------|------------------------|
B|------------------------|------------------------|
G|------------------------|------------------------|
D|-4--2--------------4--2-|------------------------|
A|----------------4-------|-------------------2----|
E|-0--0--0--0--0--0--0--0-|-0--0--0--0--0--0--0--0-|
 

E|---|-5--4--------------5--4-|------------------------|
B|---|-5--4--------------5--4-|-17/18\17/18\17---------|
G|---|-6--4--------------6--4-|------------------------|
D|---|-7--6--------------7--6-|------------------------|
A|-2-|------------------------|-------------------2----|
E|---|-0--0--0--0--0--0--0--0-|-0--0--0--0--0--0--0--0-|


E|-5--4--------------5--4-|------------------------|
B|-5--4--------------5--4-|-16\14\13\9/13----------|
G|-6--4--------------6--4-|------------------------|
D|-7--6--------------7--6-|-------------------2----|
A|------------------------|-------------2h-4-----4-|
E|-0--0--0--0--0--0--0--0-|-0--0--0--0--0--0--0--0-|
 
 
E|---------------------------|------------------------|
B|---------------------------|------------------------|
G|------14\11------------4-6-|-------14\11------------|
D|-6--4--------------4h6-----|-6--4--------------2----|
A|---------------------------|----------------4-----4-|
E|-2--2--2--2--2--2--2-----2-|-2--2--2--2--2--2--2--2-|


E|------------------------|------------------------|
B|------------------------|------------------------|
G|------------------------|------------------------|
D|-4--2--------------4--2-|------------------------|
A|----------------4-------|------------------------|
E|-0--0--0--0--0--0--0--0-|-0--0--0--0--0--0--0--0-|
 


Section B – Guitar 2:
E|----------------------------|-------------------------|
B|-/12-12-------------12\10-9-|-/12---------------------|
G|-/13-13-------------13\11-9-|-/13---------------------|
D|----------------------------|-------------------------|
A|----------------------------|-------------------------|
E|--0--0--0--0--0--0--0-----0-|--0--0--0--0--0--0--0--0-|

E|----------------------------|-------------------------|
B|-/12-12-------------12\10-9-|-/12---------------------|
G|-/13-13-------------13\11-9-|-/13---------------------|
D|----------------------------|-------------------------|
A|----------------------------|-------------------------|
E|--0--0--0--0--0--0--0-----0-|--0--0--0--0--0--0--0--0-|

E|--------16\14-----------|--------17\-------------|
B|-12\10------------------|-12\10------------------|
G|-13\11------------------|-13\11------------------|
D|------------------------|------------------------|
A|-0--0--0--0--0--0--0--0-|-0--0--0--0--0--0--0--0-|
E|------------------------|------------------------|
[ Tab from: http://www.guitartabs.cc/tabs/f/fleetwood_mac/albatross_tab_ver_3.html ]
E|------------------------|------------------------|
B|-10\9-----------5/10--9-|------------------------|
G|-11\9-----------6/11--9-|------------------------|
D|------------------------|------------------------|
A|------------------------|------------------------|
E|-0--0--0--0--0--0--0--0-|-0--0--0--0--0--0--0--0-|
 
E|----------------------------|-------------------------|
B|-/12-12-------------12\10-9-|-/12---------------------|
G|-/13-13-------------13\11-9-|-/13---------------------|
D|----------------------------|-------------------------|
A|----------------------------|-------------------------|
E|--0--0--0--0--0--0--0-----0-|--0--0--0--0--0--0--0--0-|

E|----------------------------|-------------------------|
B|-/12-12-------------12\10-9-|-/12---16/17/19\17\16----|
G|-/13-13-------------13\11-9-|-/13---------------------|
D|----------------------------|-------------------------|
A|----------------------------|-------------------------|
E|--0--0--0--0--0--0--0-----0-|--0--0--0--0--0--0--0--0-|
 
E|------------------------|--------16\14-----------|
B|-12\10—-----------------|-12\10------------------|
G|-13\11--13\11-----------|-13\11------------------|
D|------------------------|------------------------|
A|-0--0--0--0--0--0--0--0-|-0--0--0--0--0--0--0--0-|
E|------------------------|------------------------|

E|------------------------|------------------------|
B|-10\9-----------5/10--9-|------------------------|
G|-11\9-----------6/11--9-|------------------------|
D|------------------------|------------------------|
A|------------------------|------------------------|
E|-0--0--0--0--0--0--0--0-|-0--0--0--0--0--0--0--0-|
 

Section C:
Played with bottleneck
    Guitar 3
E|-19---------------21-p19---|------------------------|
B|------------------------19-|-21---------------------|
G|---------------------------|------------------------|
D|---------------------------|------------------------|
A|---------------------------|------------------------|
E|-0--0--0--0--0--0--0--0----|-0--0--0--0--0--0--0--0-|
                                                 Guitar 2
E|-19---------------21-p19---|----21-19----------5\4-0-|
B|------------------------19-|-21----------------5\4-0-|
G|---------------------------|-------------------------|
D|---------------------------|-------------------------|
A|---------------------------|-------------------------|
E|-0--0--0--0--0--0--0--0----|-0--0--0--0--0--0--0---0-|
 

E|-2--16\14----------5\4-0-|-2-----------------5\4-2-|
B|-2-----------------5\4-0-|-2-----------------5\4-2-|
G|-------------------------|----13\11----------------|
D|-------------------------|-------------------------|
A|-------------------------|-------------------------|
E|-2--2--2--2--2--2--2---2-|-2--2--2--2--2--2--2---2-|
                                                                    
                                               Guitar 1                                 
E|-0-----------------------|------------------------|
B|-0-----------------------|------------------------|
G|-------------------9p8-6-|-4----------------------|
D|-------------------9---7-|-6----------------------|
A|-------------------------|-------------------2----|
E|-0--0--0--0--0--0--0---0-|-0--0--0--0--0--0--0--0-|
 
Section A

E|-5--4--------------5--4-|------------------------|
B|-5--4--------------5--4-|------------------------|
G|-6--4--------------6--4-|------------------------|
D|-7--6--------------7--6-|------------------------|
A|------------------------|-------------------2----|
E|-0--0--0--0--0--0--0--0-|-0--0--0--0--0--0--0--0-|



E|-5--4--------------5--4-|------------------------|
B|-5--4--------------5--4-|-16/17/19\17\16---------|
G|-6--4--------------6--4-|------------------------|
D|-7--6--------------7--6-|-------------------2----|
A|------------------------|-------------2h-4-----4-|
E|-0--0--0--0--0--0--0--0-|-0--0--0--0--0--0--0--0-|
 

E|------------------------|---------16\14-----------|
B|------------------------|------------------------|
G|--------13\11-----------|------------------------|
D|-6--4-------------------|-6--4-------------------|
A|-------------------4--4-|-------------------4--4-|
E|-2--2--2--2--2--2--2--2-|-2--2--2--2--2--2--2--2-|

Section D – Guitar 1:
E|---------------------------|-------17\--------------|
B|---------------------------|------------------------|
G|-----------------------4-6-|------------------------|
D|-4--2--------------4/6-----|-6--4--------------2----|
A|---------------------------|----------------4-----4-|
E|-0--0--0--0--0--0--0-----0-|-2--2--2--2--2--2--2--2-|

E|-------14\12---------------|------------------------|
B|---------------------------|------------------------|
G|-----------------------4-6-|------------------------|
D|-4--2--------------4/6-----|-6--4--------------2--4-|
A|---------------------------|----------------4-------|
E|-0--0--0--0--0--0--0-----0-|-2--2--2--2--2--2--2--2-|
 
E|---------------------------|
B|---------------------------|
G|---------------------------|
D|-/6------------------------|
A|---------------------------|
E|--0------------------------|

Comments