Fleetwood Mac - Albatross Chords & Tabs

 

Albatross Chords & Tabs

Fleetwood Mac Chords & Tabs

Version: 2 Type: Tab 0 ratings
1 star 2 stars 3 stars 4 stars 5 stars
comments

Albatross Tab

   
Well i hope this is reasonably correct, as this is how i play it
Feel free to PM me with praise or complaint Frankyz84.  Enjoy.


Albatross by Fleetwood Mac
Key:
h - hammer-on.     p - pull-off.     |-----/-------| bend up then down
/ - slide up.      \ - slide down.   |--10---\10---|
                   (2) - Ring.
D/S.   E                       E
e|---|-5--4--------------5--4-|------------------------|
b|---|-5--4--------------5--4-|------------------------|
G|---|-6--4--------------6--4-|------------------------|
D|---|------------------------|------------------------|
A|-2-|------------------------|-----------------2--2---|
E|---|------------------------|------------------------|
   E                       E
E|-5--4--------------5--4-|------------------------|
B|-5--4--------------5--4-|------------------------|
G|-6--4--------------6--4-|------------------------|
D|------------------------|-------------------2----|
A|------------------------|-------------2h-4-----4-|
E|------------------------|------------------------|
[ Tab from: http://www.guitartabs.cc/tabs/f/fleetwood_mac/albatross_tab_ver_2.html ]
   F#m                      F#m             al coda
E|------------------------|------------------------|
B|------------------------|------------------------|
G|------------------------|------------------------|
D|-4-/6\-4----------------|-4-/6\-4----------------|
A|-------------------4--4-|-------------------4--4-|
E|------------------------|------------------------|
 E                         E
E|------------------------|------------------------|
B|------------------------|------------------------|
G|------------------------|------------------------|
D|-4--2--------------4--2-|------------------------|
A|----------------4-------|-------------------2----|
E|------------------------|------------------------|
   E                       E
E|-5--4--------------5--4-|--11h12p11h12p11------------|
B|-5--4--------------5--4-|----------------------------|
G|-6--4--------------6--4-|----------------------------|
D|------------------------|----------------------------|
A|------------------------|---------------------2--2---|
E|------------------------|----------------------------|
   E                       E
E|-5--4--------------5--4-|------------------------|
B|-5--4--------------5--4-|------------------------|
G|-6--4--------------6--4-|------------------------|
D|------------------------|-------------------2----|
A|------------------------|-------------2h-4-----4-|
E|------------------------|------------------------|
   F#m                         F#m
E|---------------------------|------------------------|
B|---------------------------|------------------------|
G|-----------------------4-6-|------------------------|
D|-4-/6\-4-----------4h6-----|-6-\-4-------------2----|
A|---------------------------|----------------4-----4-|
E|---------------------------|------------------------|
  E                        E
E|------------------------|------------------------|
B|------------------------|------------------------|
G|------------------------|------------------------|
D|-4--2--------------4--2-|-(2)--------------------|
A|----------------4-------|------------------------|
E|------------------------|------------------------|

   E                            E
E||-------------------/--------|----------------------|
B||--10b--10b------10b--\10--9-|-10b------------------|
G||*---------------------------|----------------------|
D||*---------------------------|----------------------|
A||----------------------------|----------------------|
E||----------------------------|----------------------|
  E                           E
E|------------------/--------|----------------------|
B|-10b--10b------10b--\10--9-|-10b------------------|
G|---------------------------|----------------------|
D|---------------------------|----------------------|
A|---------------------------|----------------------|
E|---------------------------|----------------------|
  F#m               F#m                E                 E
E|----/------------|----/------------|------------------|------------||
B|-10b--\10~~~-----|-10---\10~~~-----|-10-9--------10-9-|-(9)--------||
G|-----------------|-----------------|-----------9------|-----------*||
D|-----------------|-----------------|------------------|-----------*||
A|-----------------|-----------------|------------------|------------||
E|-----------------|-----------------|------------------|------------||
  E                 E               E                E
E|-5/7-----9p7----|------9p7-------|-5/7-----9p7----|-----9p7----5\4-0-|
B|--------------7-h-9--------------|--------------7-h-9----------5\4-0-|
G|----------------|----------------|----------------|------------------|
D|----------------|----------------|----------------|------------------|
A|----------------|----------------|----------------|------------------|
E|----------------|----------------|----------------|------------------|

  F#m              F#m              E                E       D/S al coda
E|-2--------5\4-0-|-2--------5\4-2-|-0--------------|-------------------|
B|-2--------5\4-0-|-2--------5\4-2-|-0--------9p8-6-|-4-----------------|
G|----------------|----------------|----------9---7-|-6-----------------|
D|----------------|----------------|----------------|-------------------|
A|----------------|----------------|----------------|--------------2----|
E|----------------|----------------|----------------|-------------------|

  coda
E|----------------|--------------|-----------------|-----------------|-0---||
B|----------------|--------------|-----------------|-----------------|-0---||
G|------------4-6-|--------------|-------------4-6-|-----------------|-1---||
D|-4-2----4/6-----|-6-------2----|-4--2----4/6-----|-6--4-------2--4-|-2---||
A|----------------|------4-----4-|-----------------|---------4-------|-2---||
E|----------------|--------------|-----------------|-----------------|-0---||


Dedicated to wizzywozza.
Comments