Flaw - Whole Chords & Tabs

 

Whole Chords & Tabs

Flaw Chords & Tabs

Version: 3 Type: Tab 0 ratings
1 star 2 stars 3 stars 4 stars 5 stars
comments

Whole Tab

FLAW WHOLE

Verse 1
E----------------------------------------------------------------------------------------
B----------------------------------------------------------------------------------------
G--------9 9 9 9 9 9 9 9 9 9 9 9 9 9 9 9----------9 9 9 9 9 9 9 9 7 7 7 7 5 5 5 5--------
D---2-~--x x x x x x x x x x x x x x x x-----2-~--x x x x x x x x x x x x x x x x--------
A---2-~--7 7 7 7 7 7 7 7 7 7 7 7 7 7 7 7-----2-~--7 7 7 7 7 7 7 7 5 5 5 5 3 3 3 3--------
E---0-~--------------------------------------0-~-----------------------------------------

Chorus
E----------------------------------------------------------------------------------------
B----------------------------------------------------------------------------------------
G------7 7 7 7 5 5 5 5--8 / 7 / 10--------------------9 9 9 9 9 9 9 9 9 9 9 9 9 9 9 9----
D---2--7 7 7 7 5 5 5 5--8 / 7 / 10----X8---------2-~--x x x x x x x x x x x x x x x x----
A---2--5 5 5 5 3 3 3 3--6 / 5 /  8---------------2-~--7 7 7 7 7 7 7 7 7 7 7 7 7 7 7 7----
E---0--------------------------------------------0-~-------------------------------------

Verse 2
E----------------------------------------------------------------------------------------
B----------------------------------------------------------------------------------------
G------------9-----------xx9-----------xx9 9 9 9 9 9 9 9 9 9 9 9 9 9 9 9-----------------
D---22-2222--x--22 2222--xxx--22-2222--xxx x x x x x x x x x x x x x x x---x2------------
A---22-2222--7--22 2222--xx7--22-2222--xx7 7 7 7 7 7 7 7 7 7 7 7 7 7 7 7-----------------
E---00-0000-----00 0000-------00-0000----------------------------------------------------

On Second time play..
E----------------------------------------------------------------------------------------
B----------------------------------------------------------------------------------------
G-----9 9 9 9 9 9 9 9 9 7 7 7 7 5 5 5 5--------------------------------------------------
D-----x x x x x x x x x x x x x x x x x--------------------------------------------------
A-----7 7 7 7 7 7 7 7 7 5 5 5 5 3 3 3 3--------------------------------------------------
E----------------------------------------------------------------------------------------
[ Tab from: http://www.guitartabs.cc/tabs/f/flaw/whole_tab_ver_3.html ]
Chorus
E----------------------------------------------------------------------------------------
B----------------------------------------------------------------------------------------
G------7 7 7 7 5 5 5 5--8 / 7 / 10-------------------------------------------------------
D---2--7 7 7 7 5 5 5 5--8 / 7 / 10----X8-------------------------------------------------
A---2--5 5 5 5 3 3 3 3--6 / 5 /  8-------------------------------------------------------
E---0------------------------------------------------------------------------------------

Interlude
E----------------------------------------------------------------------------------------
B----------------------------------------------------------------------------------------
G----------9-----------xx9----------9----------------------------------------------------
D--22-222--x--22-2222--xxx--22-222--x--22-2-222------------------------------------------
A--22-222--7--22-2222--xx7--22-222--7--22-2-222------------------------------------------
E--00-000-----00-0000-------00-000-----00-0-000------------------------------------------

Interlude Continued
E----------------------------------------------------------------------------------------
B----------------------------------------------------------------------------------------
G--------9---------9-------9---------9 9 9 9---------------------------------------------
D---222--x--2-222--x--222--x--2-222--x x x x-------x2----then---2------------------------
A---222--7--2-222--7--222--7--2-222--7 7 7 7--------------------2------------------------
E---ooo-----0-000-----ooo-----0-000-----------------------------0------------------------

(Drum and Bass Part)

Chorus
E----------------------------------------------------------------------------------------
B----------------------------------------------------------------------------------------
G--9 9 9 9 9 9 9 9 7 7 7 7 5 5 5 5-----7 7 7 7 5 5 5 5--8 / 7 / 10-----------------------
D--x x x x x x x x x x x x x x x x--2--7 7 7 7 5 5 5 5--8 / 7 / 10----X8-----------------
A--7 7 7 7 7 7 7 7 5 5 5 5 3 3 3 3--2--5 5 5 5 3 3 3 3--6 / 5 /  8-----------------------
E-----------------------------------0----------------------------------------------------

Outro
E----------------------------------------------------------------------------------------
B----------------------------------------------------------------------------------------
G----------xx9-----------xx9----------xx9------------------------------------------------
D--22-222--xxx--22-2222--xxx--22-222--xxx--22-2-222-~------------------------------------
A--22-222--xx7--22-2222--xx7--22-222--xx7--22-2-222-~------------------------------------
E--00-000-------00-0000-------00-000-------00-0-000-~------------------------------------
Comments