Flaw - Whole Chords & Tabs

 

Whole Chords & Tabs

Flaw Chords & Tabs

Version: 1 Type: Bass Tab 0 ratings
1 star 2 stars 3 stars 4 stars 5 stars
comments

Whole Bass Tab

FLAW
WHOLE
THROUGH THE EYES
[ Tab from: http://www.guitartabs.cc/tabs/f/flaw/whole_btab.html ]
Intro/Chorus
G--------------------------------
D--------------------------------
A--------------33-22-------------
E------333-222-------33----------
B-0-00---------------------------

Verse
G--------------------------------
D--------------------------------
A--------------------------------
E--------------------------------
B-000-x-00-00---000-x-00-00------

Its easy but it rocks!
Comments