Flaw - Payback Chords & Tabs

 

Payback Chords & Tabs

Flaw Chords & Tabs

Version: 7 Type: Tab 0 ratings
1 star 2 stars 3 stars 4 stars 5 stars
comments

Payback Tab

 Payback                                     


                                                                            Flaw
guitar 1
E||----------------------|----------------------|
B||----------------------|----------------------|
G||----------------------|----------------------|
D||--9----9----9----9----|--9----9----9----9----|
A||--9----9----9----9----|--9----9----9----9----|
E||--7----7----7----7----|--7----7----7----7----|
B||----------------------|----------------------|
                                                                            
----------------------|---------------------||-----------------------------|
----------------------|---------------------||-----------------------------|
----------------------|---------------------||-----------------------------|
--9----9----9----9----|--9----9----9--------||-----------------------------|
--9----9----9----9----|--9----9----9--------||--2--2--2-2--2--2--2-2-2-x-x-|
--7----7----7----7----|--7----7----7--------||--2--2--2-2--2--2--2-2-2-x-x-|
----------------------|------------0--------||--0--0--0-0--0--0--0-0-0-0-0-|


                          3x                                               2x
--------------------------||----------------------|------------------------||
--------------------------||----------------------|------------------------||
--------------------------||----------------------|------------------------||
--------------------------||----------------------|------------------------||
--2--2--2-2--x-8----7-----||------9---10----------|------9---10------7-----||
--2--2--2-2--x-8----7-----||--7-------------------|--7---------------------||
--0--0--0-0--x-6----5-----||----------------------|------------------------||


                                                                              
----------------------|-----------------------||-----------------------------|
----------------------|-----------------------||-----------------------------|
----------------------|-----------------------||-----------------------------|
----------------------|-----------------------||-----------------------------|
------9---10----------|------9---10------7----||--2--2--2-2--2--2--2-2-2-x-x-|
--7-------------------|--7--------------------||--2--2--2-2--2--2--2-2-2-x-x-|
----------------------|-----------------------||--0--0--0-0--0--0--0-0-0-0-0-|


                          3x                                               2x
--------------------------||----------------------|------------------------||
--------------------------||----------------------|------------------------||
--------------------------||----------------------|------------------------||
--------------------------||----------------------|------------------------||
--2--2--2-2--x-8----7-----||------9---10----------|------9---10------7-----||
--2--2--2-2--x-8----7-----||--7-------------------|--7---------------------||
--0--0--0-0--x-6----5-----||----------------------|------------------------||


                                                                              
----------------------|-----------------------||-----------------------------|
----------------------|-----------------------||-----------------------------|
----------------------|-----------------------||-----------------------------|
----------------------|-----------------------||-----------------------------|
------9---10----------|------9---10------7----||--2--2--2-2--2--2--2-2-2-x-x-|
--7-------------------|--7--------------------||--2--2--2-2--2--2--2-2-2-x-x-|
----------------------|-----------------------||--0--0--0-0--0--0--0-0-0-0-0-|

[ Tab from: http://www.guitartabs.cc/tabs/f/flaw/payback_tab_ver_7.html ]
                          3x                   2x   
--------------------------||-------------------||   
--------------------------||-------------------||   
--------------------------||-------------------||   
--------------------------||-------------------||   
--2--2--2-2--x-8----7-----||--2----------------||   
--2--2--2-2--x-8----7-----||--2----------------||   
--0--0--0-0--x-6----5-----||--0----------------||   
                                                         3x
|-----------------------------|--------------------------||
|-----------------------------|--------------------------||
|-----------------------------|--------------------------||
|-----------------------------|--------------------------||
|--2--2--2-2--2--2--2-2-2-x-x-|--2--2--2-2--x-8----7-----||
|--2--2--2-2--2--2--2-2-2-x-x-|--2--2--2-2--x-8----7-----||
|--0--0--0-0--0--0--0-0-0-0-0-|--0--0--0-0--x-6----5-----||
                                                           
|-----------------------------|--------------------------||
|-----------------------------|--------------------------||
|-----------------------------|--------------------------||
|-----------------------------|--------------------------||
|--2--2--2-2--2--2--2-2-2-x-x-|--2--2--2-2--x-8----7-----||
|--2--2--2-2--2--2--2-2-2-x-x-|--2--2--2-2--x-8----7-----||
|--0--0--0-0--0--0--0-0-0-0-0-|--0--0--0-0--x-6----5-----||


                                                                          
-------------------------|--------------------------||-------------------|
-------------------------|--------------------------||-------------------|
-------------------------|--------------------------||-------------------|
-------------------------|--------------------------||-------------------|
--2--2--2-2--2-2--2------|--2--2--2-2--x-8----7-----||--2----------------|
--2--2--2-2--2-2--2------|--2--2--2-2--x-8----7-----||--2----------------|
--0--0--0-0--0-0--0------|--0--0--0-0--x-6----5-----||--0----------------|

guitar 2
--------------------------------|-------------------------------|
--------------------------------|-------------------------------|
--------------------------------|-------------------------------|
--------------------------------|-------------------------------|
--------------------------------|--------------------------7----|
--8-7-0-8-7-0-8-7-0-8-7-0-8--8--|--8-7-0-8-7-0-8-7-0-8-7-0------|
--------------------------------|-------------------------------|


                                                                 
--------------------------------|-------------------------------|
--------------------------------|-------------------------------|
--------------------------------|-------------------------------|
--------------------------------|-------------------------------|
--------------------------------|--------------------------7----|
--8-7-0-8-7-0-8-7-0-8-7-0-8--8--|--8-7-0-8-7-0-8-7-0-8-7-0------|
--------------------------------|-------------------------------|


                                                                  2x
|--------------------------------|--------------------------------||
|--------------------------------|--------------------------------||
|--------------------------------|--------------------------------||
|--------------------------------|--------------------------------||
|--------------------------------|--------------------------7-----||
|--8-7-0-8-7-0-8-7-0-8-7-0-8--8--|--8-7-0-8-7-0-8-7-0-8-7-0-------||
|--------------------------------|--------------------------------||


                                                                 
--------------------------------|-------------------------------|
--------------------------------|-------------------------------|
--------------------------------|-------------------------------|
--------------------------------|-------------------------------|
--------------------------------|--------------------------7----|
--8-7-0-8-7-0-8-7-0-8-7-0-8--8--|--8-7-0-8-7-0-8-7-0-8-7-0------|
--------------------------------|-------------------------------|


                                       3x                      
|------------------|-------------------||---------------------|
|------------------|-------------------||---------------------|
|------------------|-------------------||---------------------|
|------------------|-------------------||-------4----5--------|
|------------------|-------------------||--2------------------|
|------------------|-------------------||--2------------------|
|------------------|-------------------||--0------------------|


                                                                  
---------------------|---------------------|---------------------|
---------------------|---------------------|---------------------|
---------------------|---------------------|---------------------|
-------4----5--------|-------4----5--------|-------4----5--------|
--2------------------|--2------------------|--2------------------|
--2------------------|--2------------------|--2------------------|
--0------------------|--0------------------|--0------------------|


                                                             
|------------------|-------------------||-------------------|
|------------------|-------------------||-------------------|
|------------------|-------------------||-------------------|
|------------------|-------------------||-------------------|
|------------------|-------------------||--------------9----|
|------------------|-------------------||-------------------|
|------------------|-------------------||-------------------|
Comments