Flaw - Payback Chords & Tabs

 

Payback Chords & Tabs

Flaw Chords & Tabs

Version: 5 Type: Tab 0 ratings
1 star 2 stars 3 stars 4 stars 5 stars
comments

Payback Tab

Artist- Flaw

Song- Payback

submitted by - Wes

Ok on this song i can either be played on a 7 string or a 6 string. I play a 7 string so
this is how u play it for 7 string guitars.  To play on a 6 string just take off the
seventh string on the tab and play how it shows.....  (When playing 7 string guitars play
the b-string open on all the heavy parts)!!   ******it realy helps to listen to the song
while playing*******

Intro- at 0:09     **Heavy Distortion through out whole song**
e---------------------------------------------------------------------
b---------------------------------------------------------------------
g---------------------------------------------------------------------
D--99999999999999999---0----------------------------------------------
A--99999999999999999---2----------------------------------------------
E--77777777777777777---2----------------------------------------------
B---------------------------------------------------------------------


Pre-verse... at 0:19..... * use your fingers to add some harmonics while playing it.     
e--------------------------------------------------------------------
b---------------------Play 3#----------------------------------------
g--------------------------------------------------------------------
D--000-00000-000000-0000-----/8\--/5---------------------------------
A--222-22222-222222-2222-----/8\--/5---------------------------------
E--222-22222-222222-2222-----/6\--/7---------------------------------
B--------------------------------------------------------------------

                                                             at..0:59
Verse... at 0:40.  Let all the notes ring...           Intro to chorus
e---------------------------------------------------]----------------
b--------------------play 4#------------------------]----------------
g---------------------------------------------------]----------------
D---------------------------------------------------]---0--0---------
A------4---5------4--5--4---------------------------]---2--2---------
E----2----------2-----------------------------------]---2--2---------
B---------------------------------------------------]----------------
  
                   **HEAVY**
Chorus.. At 1:00.. same as pre chorus but play 4 times thru..
e--------------------------------------------------------------------
b--------------------------------------------------------------------
g--------------------------------------------------------------------
D----0-00--00000-0000-0--/8\--/7\------------------------------------
A----2-22--22222-2222-2--/8\--/7\------------------------------------
E----2-22--22222-2222-2--/6\--/5\------------------------------------
B--------------------------------------------------------------------

                                                            at..2:01
second verse... at 1:20...                             Intro to chorus
e------------------------------------------------------]--------------
b---------------------------Play 8 #-------------------]--------------
g------------------------------------------------------]--------------
D------------------------------------------------------]--0--0--------
A------4--5------4--5-4--------------------------------]--2--2--------
E----2---------2---------------------------------------]--2--2--------
B------------------------------------------------------]--------------

[ Tab from: http://www.guitartabs.cc/tabs/f/flaw/payback_tab_ver_5.html ]
second Chorus.. At 2:02..   **HEAVY**
e---------------------------------------------------------------------
b---------------------------------------------------------------------
g---------------------------------------------------------------------
D-----0-00-00000-00-0--/8\--/7\---------------------------------------
A-----2-22-22222-22-2--/8\--/7\---------------------------------------
E-----2-22-22222-22-2--/6\--/5\---------------------------------------
B---------------------------------------------------------------------



Solo at.. 2:23...                                    play at 2:50
e-------------------------------------------------]-------------------
b------------------Play untill 2:49---------------]-------------------
g-------------------------------------------------]-------------------
D-------------------------------------------------]-99999---0--0------
A-------------------------------------------------]-99999---2--2------
E----8-7-0--8-7-0--8-7-0---8-7-8---8-7-0---8-7-0--]-77777---2--2------
B-------------------------------------------------]-------------------


Third Chorus... At 2:51    **HEAVY**
e---------------------------------------------------------------------
b----------------play 4#----------------------------------------------
g---------------------------------------------------------------------
D--2-22-22222-22-2--/8\--/7\------------------------------------------
A--2-22-22222-22-2--/8\--/7\------------------------------------------
E--0-00-00000-00-0--/6\--/5\------------------------------------------
B---------------------------------------------------------------------

                                                         At...3:23
Intro to ending... play at. 3:14                      "Your turn Now  
e-----------------------------------------------------]---------------
b-----------------------------------------------------]---------------
g------/999\------/777\------/999\--9\--12--12--12--12]---------------
D--00--/999\--00--/777\--00--/999\--------------------]-0---0---0-----
A--22--/777\--22--/555\--22--/777\--7\--10--10--10--10]-2---2---2-----
E--22---------22---------22---------------------------]-2---2---2-----
B-----------------------------------------------------]---------------


The awesome ending!!!!!  **Play loud and heavy** At.. 3:24
e---------------------------------------------------------------------
b------**Play this twice**--------------------------------------------
g---------------------------------------------------------------------
D--0-00-00000-00-0--/8\--/7\------------------------------------------
A--2-22-22222-22-2--/8\--/7\------------------------------------------
E--2-22-22222-22-2--/6\--/5\------------------------------------------
B---------------------------------------------------------------------


Then play.....                                                     End
e-----------------------------------------------------------------]---
b----------5~-----------------------------------------------------]---
g----------5~-------------------------------4~--------------------]---
D--0-00-00----000-00-0--/8\--/7\---0-00-00--4~--000-00-0--/8\--/7\]-0-
A--2-22-22----222-22-2--/8\--/7\---2-22-22------222-22-2--/8\--/7\]-2-
E--2-22-22----222-22-2--/6\--/5\---2-22-22------222-22-2--/6\--/5\]-2-
B-----------------------------------------------------------------]---



Flaw forever***

Any questions email me at Skaterforlife22@hotmail.com

**i suggest this song for anger management**
Comments