Flaw - Payback Chords & Tabs

 

Payback Chords & Tabs

Flaw Chords & Tabs

Version: 4 Type: Bass Tab 0 ratings
1 star 2 stars 3 stars 4 stars 5 stars
comments

Payback Bass Tab

   
Artist:Flaw
Song:Payback
Tabbed By: Peoplesuck_09

Tuning: B,F#,C#,F#

 -Intro- 
                                  X4
F#|-------------9-9-9-7-7-------------------9-9-9-10-10-10-12-12-12--|
C#|-------8-8-8-----------8-8-7-------8-8-8--------------------------|
F#|-7-7-7-----------------------7-7-7--------------------------------|
B |------------------------------------------------------------------|
[ Tab from: http://www.guitartabs.cc/tabs/f/flaw/payback_btab_ver_4.html ]
 -Verse/Chorus-
F#|---------------------------------------|
C#|---------------------------------------|
F#|---------------------------------------|
B |-0-0--0--0-0-0-0--0-0--0-0--6-5--------|

  Repeated thourghout song except for mellow part-No Bass

 -Outro-
F#|----------9---7------------------9--10--12--|
C#|------8----------8-7---------8--------------|
F#|--7----------------------7------------------|
B |--------------------------------------------|


 Repeat until end......

Any comments or corrections sent to peoplesuck_09@hotmail.com
Comments