Flaw - Payback Chords & Tabs

 

Payback Chords & Tabs

Flaw Chords & Tabs

Version: 2 Type: Bass Tab 0 ratings
1 star 2 stars 3 stars 4 stars 5 stars
comments

Payback Bass Tab

Here is the correct version, you can have a 4 string tuned B E A D, or a 5 string just 
dont use the top string on the solo
\=slide up
/= slide down
h=Hammer On
Intro
D|----------999--777----------------999--7-7h9-10--|
A|------888----------88--77-----888----------------|
E|--777---------------------777--------------------|
B|-------------------------------------------------|
[ Tab from: http://www.guitartabs.cc/tabs/f/flaw/payback_btab_ver_2.html ]
Chorus
D|-------------------------------------------------|
E|-------------------------------------------------|
A|-------------------------------------------------|
B|--00-0000-00000-00-/6\5--------------------------|

Verse
D|-------------------------------------------------|
E|---9-10---9-9-10---------------------------------|
A|--7-----7----------------------------------------|
B|-------------------------------------------------|
Comments