Flaw - Only The Strong Chords & Tabs

 

Only The Strong Chords & Tabs

Flaw Chords & Tabs

Version: 1 Type: Tab 0 ratings
1 star 2 stars 3 stars 4 stars 5 stars
comments

Only The Strong Tab

Sorry people, but this may be choppy, feel free to make changes. Or email 
me at johnson472@hotmail.com and let me know your changes so I can fix it. 

|-------------------------|---------------------|         
|-------------------------|---------------------|
|-------------------------|---------------------|   
|-------------------------|---------------------|
|---2h3---3---3p0---------|---2h3---3---3p0-----|
|-------------------------|---------------------|

[ Tab from: http://www.guitartabs.cc/tabs/f/flaw/only_the_strong_tab.html ]
|-------------------------|---------------------|           
|-------------------------|---------------------|
|-------------------------|---------------------|   
|-------------------------|---------------------|  5x
|---2h3---3---3p0---------|---2h3--3--3p0-h5/6--|
|-------------------------|---------------------|


(then the music will get louder and drums kick in)

|-------------------------|---------------------|         
|-------------------------|---------------------|
|-------------------------|---------------------|   
|-------------------------|---------------------|
|-------------------------|---------------------|
|---2h3---3---3p0---------|---2h3---3---3p0-----|

|-------------------------|---------------------|         
|-------------------------|---------------------| play as 
|-------------------------|---------------------| much as 
|-------------------------|---------------------| needed 
|-------------------------|---------------------| 
|---2h3---3---3p0---------|---2h3--3--3p0-h5/6--|
Comments