Flaw - My Letter Chords & Tabs

 

My Letter Chords & Tabs

Flaw Chords & Tabs

Version: 6 Type: Tab 0 ratings
1 star 2 stars 3 stars 4 stars 5 stars
comments

My Letter Tab

   
-------------------------------------------------------------------------------
			     My Letter - FLAW
-------------------------------------------------------------------------------
Tabbed by: IbanezFreak555
Email: theasiankid555@end-war.com

Tuning: B,E,A,D,G,B

Intro
-|---------2------2----------------------------|
-|------1-----1------1------0--2--2h3p2----2-0-|
-|-------------------------------------3--3----|
-|---------------------------------------------|
-|---------------------------------------------|
-|-2------2------2-----0------0----------------| 

Verse/Bridge
-|---------2------2-------------------|
-|------1-----1------1------1--2----0-|
-|------------------------------------|
-|------------------------------------|
-|------------------------------------|
-|-2------2------2-----0------0-------| X?

Pre-Verse
-|----------------------------------------------------------------------------|
-|----------------------------------------------------------------------------|
-|----------------------------------------------------------------------------|
-|----------------------------------------------------------------------------|
-|-4-------2-------4-------2---7/6--4-------2-------4----6/7--9---7/6--7--7-2-|
-|-2-------0-------2-------0---5/4--2-------0-------2----4/5--7---5/4--5--5-0-|

Chrous X2
-|---------------------------------------|
-|---------------------------------------|
-|---------------------------------------|
-|---------------------------------------|
-|-4---3/4--3/4--x-7---2---2-2--2-2--7/6-|
-|-2---1/2--1/3--x-5---0---0-0--0-0--5/4-|

-|----------------------------------------|
-|----------------------------------------|
-|----------------------------------------|
-|----------------------------------------|
-|-4---3/4--3/4--x-7--9---7/6--7--7--2--4-|
-|-2---1/2--1/2--x-5--7---5/4--5--5--0--2-|

Bridge

Verse

Chorus

Interlude
 Guitar 1
-|----------------|
-|-10-9-----------|
-|------11--------|
-|---------11/14~-|
-|----------------|
-|----------------| X2
[ Tab from: http://www.guitartabs.cc/tabs/f/flaw/my_letter_tab_ver_6.html ]
-|---------7------------------------------------------------------|
-|-10-9------10~--10-9-----------10-9-----------10-9----9h10--12~-|
-|------11-------------11-------------11-------------11-----------|
-|------------------------11/14~---------11/14~-------------------|
-|----------------------------------------------------------------|
-|----------------------------------------------------------------|

 Guitar 2
-|--------------------------------------------------|
-|--------------------------------------------------|
-|--------------------------------------------------|
-|--------------------------------------------------|
-|-4-4-x-x--x--x--x-x--x-x--2-2-x-x-x-x--x-x-x--x-x-|
-|-2-2-x-x--x--x--x-x--x-x--0-0-x-x-x-x--x-x-x--x-x-|

Both
-|----------------------|
-|----------------------|
-|----------------------|
-|----------------------|
-|-6/7--9--7/6--7--7--2-|
-|-4/5--7--5/4--5--5--0-|

Outro
 Guitar 1
-|------------------------------------------------------------------|
-|-10-9-----------10-9-----------10-9----9h10--12~--10p9-10--10-----|
-|------11-------------11-------------11-------------------------11-|
-|---------11/14~---------11/14~------------------------------------|
-|------------------------------------------------------------------|
-|------------------------------------------------------------------|

-|-------------------------------------------------|
-|-10-9-----------10-9-----------10-9----9h10--12~-|
-|------11-------------11-------------11-----------|
-|---------11/14~---------11/14~-------------------|
-|-------------------------------------------------|
-|-------------------------------------------------|

 Guitar 2
-|---------------------------------------------------------------|
-|---------------------------------------------------------------|
-|---------------------------------------------------------------|
-|---------------------------------------------------------------|
-|-4---------6/7--2---------7/6--4--------6/7--9----7/6--7--7--2-|
-|-2---------4/5--0---------5/4--2--------4/5--7----5/4--5--5--0-|

End
-|--------------|
-|--------------|
-|--------------|
-|--------------|
-|-7/6--7--7--2-|
-|-5/4--5--5--0-|

| /  slide up
| \  slide down
| h  hammer-on
| p  pull-off
| ~  vibrato
| +  harmonic
| x  Mute note
===============================================================================
Comments