Flaw - Get Up Again Chords & Tabs

 

Get Up Again Chords & Tabs

Flaw Chords & Tabs

Version: 1 Type: Tab

Get Up Again Tab

(Triple X) XXX Soundtrack

Track 6

Flaw/Get Up Again

Intro.

|---------------------------|
|---------------------------|
|---------------------------|
|---------------------------|
|---------------------------|
|--3/2-2--2-3/2-2--2-3/2-2--|
[ Tab from: http://www.guitartabs.cc/tabs/f/flaw/get_up_again_tab.html ]
|------------------------------|
|------------------------------|
|------------------------------|
|------------------------------|
|------------------------------|
|--3/2-2--2-3/2-2--2-3h4p3-2---|

|---------------------------|
|---------------------------|
|---------------------------|
|---------------------------|
|---------------------------|
|--3/2-2--2-3/2-2--2-3/2-2--|

|----------------------------|
|----------------------------|
|----------------------------|
|----------------------------|
|----------------------------|
|--3/2-2--2-3/2-0-1-3-2-0-2--|

Repeats and changes.

My first tab, thanks.