Flaw - Best I Am Chords & Tabs

 

Best I Am Chords & Tabs

Flaw Chords & Tabs

Version: 5 Type: Tab 0 ratings
1 star 2 stars 3 stars 4 stars 5 stars
comments

Best I Am Tab

Best I Am
By Adam Kahn 

I know thery use seven strings tuned to B standard, this also works perfectly.
They sound in unison when played together, trust me. 

Intro (clean, with delay and chorus)
G#|-----------------------------------------------------------| Play 6 times 
C#|----------8----8----------------------8-----8--------------| 
E |------------------10----------------------------10---------| 
B |----10---------------10------10-------------------10-------| 
F#|--8----8----8--------------8-----8------8------------------| 
B |-----------------------------------------------------------| 


G#|----------------------------------------------------------| 
C#|----------5----6p5-------5---6----5-----------------------| 
E |----------------------------------------------------------| 
B |------7-----------------7---------------------------------| 
F#|---5---5---5--------5------5----5----5--------------------| 
B |----------------------------------------------------------| 


Chorus (Play 2 times) 
G#|-------------------------------------------------------------------------|
C#|-------------------------------------------------------------------------|
E |-------------------------------------------------------------------------|
B |-3--3--3-3--3--3--3-3--3--3-3--3--3---0--0--0-0--0--0--0-0--0--0-0--0--0-|
F#|-3--3--3-3--3--3--3-3--3--3-3--3--3---0--0--0-0--0--0--0-0--0--0-0--0--0-|
B |-3--3--3-3--3--3--3-3--3--3-3--3--3---0--0--0-0--0--0--0-0--0--0-0--0--0-|

[ Tab from: http://www.guitartabs.cc/tabs/f/flaw/best_i_am_tab_ver_5.html ]
At the end of the second time, play this ( after the open cords).
Let the 3's ring out and fade away. 
G#|------------------------------| 
C#|------------------------------| 
E |------------------------------| 
B |---x-x---x----3---------------| 
F#|---x-x---x----3---------------| 
B |---x-x---x----3---------------| 

Play the intro again. 

This is in the background. 
it comes after he says "....so hard to think about when I was a child" 
|----------------------------| 
|------13-----15---10--------| 
|----------------------------| 
|----------------------------| 
|----------------------------| 
|----------------------------| 

This is also in the back. 
It comes after he says "so angry at life..." and "....i wanted to know how to get by" 
|------------------------------------| 
|---11h10----------------13------15--| 
|------------------------------------| 
|------------------------------------| 
|------------------------------------| 
|------------------------------------| 

Play chorus 

This is after he says "cause it's all for you" 



|-------------------------------------------------------------------------------
|-------------------------------------------------------------------------------
|-------------------------------------------------------------------------------
|-3-3--x-x-x-x--3-3--x-x--x--3-3--x-x-x-x--3-3--x--x--x--0-0--x-x-x-x--0-0--x-x-
|-3-3--x-x-x-x--3-3--x-x--x--3-3--x-x-x-x--3-3--x--x--x--0-0--x-x-x-x--0-0--x-x-
|-3-3--x-x-x-x--3-3--x-x--x--3-3--x-x-x-x--3-3--x--x--x--0-0--x-x-x-x--0-0--x-x-


|-----------------------------------| Play 2 times 
|-----------------------------------| 
|-----------------------------------| 
|---0-0---x-x-x-x---0-0---x-x---x---| 
|---0-0---x-x-x-x---0-0---x-x---x---| 
|---0-0---x-x-x-x---0-0---x-x---x---| 

Play chorus 

At the end of the chorus play this. Let the 3's ring out and then fade away. 

|--------------------| 
|--------------------| 
|--------------------| 
|------x-x---x---3---| 
|------x-x---x---3---| 
|------x-x---x---3---|
Comments