Flaw - Best I Am Chords & Tabs

 

Best I Am Chords & Tabs

Flaw Chords & Tabs

Version: 4 Type: Tab 0 ratings
1 star 2 stars 3 stars 4 stars 5 stars
comments

Best I Am Tab

ARTIST:FLAW
SONG:BEST I AM
ALBUM:THROUGH THE EYES
TABBED BY:DANIEL RODAS
E-MAIL:FLAWKORN2002@YAHOO.COM

7-STRING GUITAR
TUNING:ONE STEP LOWER

I THINK THIS IS THE RIGHT WAY TO PLAY THIS SONG,
I SAW LANCE ARNY PLAYING IT THIS WAY LIVE
SINCE JASON DAUNT IS NOT IN THE BAND ANYMORE...

 
  (INTRO AND VERSE)
  PLAY IT WITH CRY EFFECT AND ECHO

eb--------------------------------------------------------
bb--------6------------------------6----------------------
Gb----8-------8-(10)-(8)-------8-------8-(10)-(8)---------
Db--8---8---8----------------8---8---8--------------------
Ab--------------------------------------------------------
Eb--------------------------------------------------------
Bb--------------------------------------------------------

  (INTRO AND VERSE)
[ Tab from: http://www.guitartabs.cc/tabs/f/flaw/best_i_am_tab_ver_4.html ]
eb--------------------------------------------------------
bb--------3---3-4-----3---4-3-----------------------------
Gb----5-----5-------5---5-----5---------------------------
Db--5---5---------5-------------5-------------------------
Ab--------------------------------------------------------
Eb--------------------------------------------------------
Bb--------------------------------------------------------

  (CHORUS)

eb-X-X-XXXXX-XXXX-X-XXXXX-XXX---X-X-XXXXX-XXXX-X-XXXXX-XXX
bb-X-X-XXXXX-XXXX-X-XXXXX-XXX---X-X-XXXXX-XXXX-X-XXXXX-XXX
Gb-X-X-XXXXX-XXXX-X-XXXXX-XXX---X-X-XXXXX-XXXX-X-XXXXX-XXX
Db-X-X-XXXXX-XXXX-X-XXXXX-XXX---X-X-XXXXX-XXXX-X-XXXXX-XXX
Ab-X-X-XXXXX-XXXX-X-XXXXX-XXX---X-X-XXXXX-XXXX-X-XXXXX-XXX
Eb-6-6-66666-6666-6-66666-666---3-3-33333-3333-3-33333-333
Bb-4-4-44444-4444-4-44444-444---1-1-11111-1111-1-11111-111

THE BRIDGE AND IS THE SAME AS THE CHORUS BUT 
WITH DIFFERENT STRUMMING.

E-MAIL ME WITH ANY CORRECTIONS OR QUESTIONS. THANK YOU.
Comments