Flaw - Best I Am Chords & Tabs

 

Best I Am Chords & Tabs

Flaw Chords & Tabs

Version: 3 Type: Tab 0 ratings
1 star 2 stars 3 stars 4 stars 5 stars
comments

Best I Am Tab

   
-------------------------------------------------------------------------------
		Flaw - Best I AM
-------------------------------------------------------------------------------

Tabbed by:Tyler Eibl
Email: KoRnoGraphy32@hotmail.com

Tuning: Drop B

Intro...
|--------3h----3h-1------1---3--3h-1----------0---1--0---------1---0--------|
|----1------1-------1----------------1----3----------------3----------------|
|---------------------------------------------------------------------------|
|--3---3---------------3---3---3--------0---0---0------0-0---0---0---0------|
|---------------------------------------------------------------------------|
|---------------------------------------------------------------------------|

Chorus..
|---------------------------------------------------------------------------|
|---------------------------------------------------------------------------|
|---------------------------------------------------------------------------|
|-3-3-3-3-3-3-3-3-3-3-3-3-3-x-x-0-0-0-0-0-0-0-0-0-0-0-0-0-0-0-0-0-0-0-x-x---|
|-3-3-3-3-3-3-3-3-3-3-3-3-3-x-x-0-0-0-0-0-0-0-0-0-0-0-0-0-0-0-0-0-0-0-x-x---|
|-3-3-3-3-3-3-3-3-3-3-3-3-3-x-x-0-0-0-0-0-0-0-0-0-0-0-0-0-0-0-0-0-0-0-x-x---|
[ Tab from: http://www.guitartabs.cc/tabs/f/flaw/best_i_am_tab_ver_3.html ]
|---------------------------------------------------------------------------|
|---------------------------------------------------------------------------|
|---------------------------------------------------------------------------|
|-3-3-3-3-3-3-3-3-3-3-3-3-3-x-x-0-0-0-0-0-0-0-0-0-0-0-0-0-0-x-x-x-3---------|
|-3-3-3-3-3-3-3-3-3-3-3-3-3-x-x-0-0-0-0-0-0-0-0-0-0-0-0-0-0-x-x-x-3---------|
|-3-3-3-3-3-3-3-3-3-3-3-3-3-x-x-0-0-0-0-0-0-0-0-0-0-0-0-0-0-x-x-x-3---------|

Verse 1 is the intro..Verse 2 goes as follows..(Strummed) 

|---------------------------------------------------------------------------|
|---------------------------------------------------------------------------|
|-----------------------------------------7-7-7-7-7-7-7-7-7-7-7-7-7-7-------|
|-------10-10-10-10-10-10-10-10-10--------7-7-7-7-7-7-7-7-7-7-7-7-7-7-------|
|--------8--8--8--8--8--8--8--8--8--------5-5-5-5-5-5-5-5-5-5-5-5-5-5-------|
|---------------------------------------------------------------------------|
 "Things happened so quickly..some people just go .."

Bridge..
|---------------------------------------------------------------------------|
|---------------------------------------------------------------------------|
|---------------------------------------------------------------------------|
|-3-3--x-x-3-3-3-x-x---3-3-x-x-3-3-3-1-1-1--0-0-x-x-0-0-0-x-x-0-0-x-x-0-0-0-|
|-3-3--x-x-3-3-3-x-x---3-3-x-x-3-3-3-1-1-1--0-0-x-x-0-0-0-x-x-0-0-x-x-0-0-0-|
|-3-3--x-x-3-3-3-x-x---3-3-x-x-3-3-3-1-1-1--0-0-x-x-0-0-0-x-x-0-0-x-x-0-0-0-|
                                     * * * 

| /  slide up
| \  slide down
| h  hammer-on
| p  pull-off
| ~  vibrato
| +  harmonic
| x  Mute note

===============================================================================
Comments