Flashlight Brown - Ready To Roll Chords & Tabs

 

Ready To Roll Chords & Tabs

Flashlight Brown Chords & Tabs

Version: 2 Type: Tab 0 ratings
1 star 2 stars 3 stars 4 stars 5 stars
comments

Ready To Roll Tab

   
STANDARD TUNING

INTRO
Guitar 1
e|----------------------|
B|----------------------|
G|----------------------| X12
D|----------------------|
A|-8-10-10-8-10-10-8-10-|
E|----------------------|

Guitar 2 (comes in after guitar 1 plays intro riff 4 times)
e|--8---8-x--8-x--8--8--8-x--8-x--8--7--7-x-7-x-7-7-7-x-7-x-7-|
B|--8---8-x--8-x--8--8--8-x--8-x--8--8--8-x-8-x-8-8-8-x-8-x-8-|
G|--9---9-x--9-x--9--9--9-x--9-x--9--9--9-x-9-x-9-9-9-x-9-x-9-|
D|-10--10-x-10-x-10-10-10-x-10-x-10-------x---x-------x---x---|
A|------------------------------------------------------------|
E|------------------------------------------------------------|

Guitar 2 cont'd
e|--8---8-x--8-x--8--8--8-x--8-x--8-------------------------------|
B|-10--10-x-10-x-10-10-10-x-10-x-10-------------------------------|
G|-10--10-x-10-x-10-10-10-x-10-x-10--10-x-10-x-10-x-10-x-10-10-10-|
D|--------x----x----------x----x-----10-x-10-x-10-x-10-x-10-10-10-|
A|------------------------------------8-x--8-x--8-x--8-x--8--8--8-|
E|----------------------------------------------------------------|


VERSE PT.1
Guitar 1  x2
e|--------------------------------------------------------------------------|
B|--------------------------------------------------------------------------|
G|------------------------------------- 10-10--10-10-10---------------------|
D|-10--10-10-10-10-10-10-10-10-10-10-10-10-10--10-10-10--10--10-10-10-10-10-|
A|-10--10-10-10-10-10-10-10-10-10-10-10--8--8---8--8--8--10--10-10-10-10-10-|
E|--8---8--8--8--8--8--8--8--8--8--8--8-------------------8---8--8--8--8--8-|
pm      .  .  .  .  .  .     .  .  .  .

Guitar 2  x2
e|---------------------------------------8--8---8--8--8---8---8--8--8--8--8-|
B|--------------------------------------10-10--10-10-10---9---9--9--9--9--9-|
G|--------------------------------------10-10--10-10-10--10--10-10-10-10-10-|
D|-------------------------------------------------------10--10-10-10-10-10-|
A|--------------------------------------------------------------------------|
E|--------------------------------------------------------------------------|


VERSE PT.2
Guitar 1
e|--------------------------------------------------|
B|--------------------------------------------------|
G|-10-10-10-10-10-10-10-10-10-10-10-10--------------| X2
D|-10-10-10-10-10-10-10-10-10-10-10-10--10-10-10-10-|
A|--8--8--8--8--8--8--8--8--8--8--8--8--10-10-10-10-|
E|---------------------------------------8--8--8--8-|

Guitar 2
e|--8--8--8--8--8--8--8--8--8--8--8--8---8--8--8--8-|
B|-10-10-10-10-10-10-10-10-10-10-10-10---9--9--9--9-|
G|-10-10-10-10-10-10-10-10-10-10-10-10--10-10-10-10-| X2
D|--------------------------------------10-10-10-10-|
A|--------------------------------------------------|
E|--------------------------------------------------|


(play VERSE PT.1 again)

(Play VERSE PT.2 again)

PRE-CHORUS
Guitar 1
e|---------------------------------------------------------------|
B|---------------------------------------------------------------|
G|-12~-----------------------------------------------------------|
D|-12~-----------12-12-12-12-12-12-12-12-12-12-12-12-12-12-12-12-|
A|-10~-----------12-12-12-12-12-12-12-12-12-12-12-12-12-12-12-12-|
E|---------------10-10-10-10-10-10-10-10-10-10-10-10-10-10-10-10-|

Guitar 2
e|-10------------------------------------------------------------|
B|-12------------------------------------------------------------|
G|-12------------------------------------------------------------|
D|---------------------------------------------------------------|
A|-------------------------------12-12-12-10-10-10-8-8-----------|
E|---------------------------------------------------------------|
[ Tab from: http://www.guitartabs.cc/tabs/f/flashlight_brown/ready_to_roll_tab_ver_2.html ]
cont'd
Guitar 1
e|-----------------------------------------------------------|
B|-----------------------------------------------------------|
G|-12---12---12---12---12---12---12----14----16----17--------|
D|-12---12---12---12---12---12---12----14----16----17--------|
A|-10---10---10---10---10---10---10----12----14----15--------|
E|------------------------------------------------------5--7-|

Guitar 2
e|-10---10---10---10---10---10---10---10---10---10---10---10-|
B|-12---12---12---12---12---12---12---12---12---12---12---12-|
G|-12---12---12---12---12---12---12---12---12---12---12---12-|
D|-----------------------------------------------------------|
A|-----------------------------------------------------------|
E|-----------------------------------------------------------|


(Play VERSE PT.1 again)

(Play VERSE PT.2 again)

(Play PRE-CHORUS again)

CHORUS
Guitar 1
e|----------------------         |------------------------------------------|
B|----------------------         |------------------------------------------|
G|---------------------- X6,then |-13-13-13-12-12-12-10-10-10-8-8-8-7-7-5-5-|
D|----------------------         |--x--x--x--x--x--x--x--x--x-x-x-x-x-x-x-x-|
A|-8-10-10-8-10-10-8-10-         |-11-11-11-10-10-10--8--8--8-6-6-6-5-5-3-3-|
E|----------------------         |------------------------------------------|

Guitar 2
e|--8--8--8--8--8--8--8--8--7--7--7--7--7--7--7--7---8--8--8--8--8--8--8--8-|
B|--8--8--8--8--8--8--8--8--8--8--8--8--8--8--8--8--10-10-10-10-10-10-10-10-|
G|--9--9--9--9--9--9--9--9--9--9--9--9--9--9--9--9--10-10-10-10-10-10-10-10-|
D|-10-10-10-10-10-10-10-10--------------------------------------------------|
A|--------------------------------------------------------------------------|
E|--------------------------------------------------------------------------|

Guitar 2 cont'd
e|---------------------------------|
B|---------------------------------|
G|-10-x-10-x-10-x-10-x-10-10-10-10-|
d|-10-x-10-x-10-x-10-x-10-10-10-10-|
A|--8-x--8-x--8-x--8-x--8--8--8--8-|
E|---------------------------------|

(play CHORUS again)

INTERLUDE
Guitar 1
e|----------------------          |-------------------------|
B|----------------------          |-------------------------|
G|---------------------- X6, then |-10-12-12-10-12-12-10-12-| X2
D|----------------------          |-10-12-12-10-12-12-10-12-|
A|-8-10-10-8-10-10-8-10-          |--8-10-10--8-10-10--8-10-|
E|----------------------          |-------------------------|

Guitar 2
e|--8---8-x--8-x--8--8--8-x--8-x--8-|
B|--8---8-x--8-x--8--8--8-x--8-x--8-|
G|--9---9-x--9-x--9--9--9-x--9-x--9-| X8
D|-10--10-x-10-x-10-10-10-x-10-x-10-|
A|----------------------------------|
E|----------------------------------|

(play PRE-CHORUS again)

(play CHORUS again)

OUTRO
Guitar 1
e|----------------------     |----------------------------------------------|
B|----------------------     |----------------------------------------------|
G|---------------------- X2  |----------------------------------------------|
D|----------------------     |-10--10-10-10-10-10-10--10--10-10-10-10-10-10-|
A|-8-10-10-8-10-10-8-10-     |-10--10-10-10-10-10-10--10--10-10-10-10-10-10-|
E|----------------------     |--8---8--8--8--8--8--8---8---8--8--8--8--8--8-|
pm                                     .  .  .  .  .  .       .  .  .  .  .

Guitar 1 cont'd
e|----------------------       |--------------------------------------------|
B|----------------------       |--------------------------------------------|
G|---------------------- X2,   |-13-13-13-12-12-12-10-10-10-8-8-8-7-7-4--5/-|
D|----------------------       |--x--x--x--x--x--x--x--x--x-x-x-x-x-x-x--x--|
A|-8-10-10-8-10-10-8-10-       |-11-11-11-10-10-10--8--8--8-6-6-6-5-5-2--3/-|
E|----------------------       |--------------------------------------------|

Guitar 2
e|--8---8-x--8-x--8--8--8-x--8-x--8-    |-----------------------------------|
B|--8---8-x--8-x--8--8--8-x--8-x--8-    |-----------------------------------|
G|--9---9-x--9-x--9--9--9-x--9-x--9- X3,|-10-x-10-x-10-x-10-x-10-10-10------|
D|-10--10-x-10-x-10-10-10-x-10-x-10-    |-10-x-10-x-10-x-10-x-10-10-10--10/-|
A|----------------------------------    |--8-x--8-x--8-x--8-x--8--8--8--10/-|
E|----------------------------------    |--------------------------------8/-|
Comments