Flashlight Brown - Ready To Roll Chords & Tabs

 

Ready To Roll Chords & Tabs

Flashlight Brown Chords & Tabs

Version: 1 Type: Tab 0 ratings
1 star 2 stars 3 stars 4 stars 5 stars
comments

Ready To Roll Tab

   
Song: Ready To Roll
Band: Flashlight Brown
Album: My Degeneration

INTRO:
  C   Em  F G G# A#  C  D
|--8--7--1--3--------8--10--|
|--8--8--1--3--------8--10--|
|--9--9--2--4--------9--11--|
|--10-9--3--5-6--8--10--12--|
|--10-7--3--5-6--8--10--12--|
|--8-----1--3-4--6---8--10--|


VERSE:

|--8---------------------------1---8--|   |--8-------------------------8---8--|      
|--8---------------------------1---8--|   |--8-------------------------9---8--|       
|--9---------------------------2---9--|   |--9------------------------10---9--|      
|-10---------------------------3---10-|   |-10------------------------10---10-|      
|-10---------------------------3---10-|   |-10-------------------------8---10-|      
|--8---------------------------1---8--|   |--8-----------------------------8--|     
  pm ……………………                  pm …………………                   
[ Tab from: http://www.guitartabs.cc/tabs/f/flashlight_brown/ready_to_roll_tab.html ]
|--1------------1------------------8--------8----|
|--1------------1------------------9--------8----|
|--2------------2-----------------10--------9----|   X2
|--3------------3-----------------10-------10----|   
|--3------------3------------------8-------10----|
|--1------------1---------------------------8----|

|--------------------------------------------------------------------------------------------|
                                           repeat verse
CHORUS:

|--3~-------5----------3--------5-7-1-3------5-7--|
|--3~-------6----------3--------6-8-1-3------5-7--|
|--4~-------7----------4--------7-9-2-4------6-8--|
|--5~-------7----------5--------7-9-3-5------7-9--|
|--5~-------5----------5--------5-7-3-5------7-9--|
|--3~------------------3------------1-3------5-7--|

VERSE:  X 1
CHORUS:  X 1

|--8--------7-----1------1-3------8--10-|
|--8--------8-----1------1-3------8--10-|
|--9--------9-----2------2-4------9--11-|            X2
|-10--------9-----3------3-5-6-8-10--12-|
|-10--------7-----3------3-5-6-8-10--12-|
|--8--------------1------1-3-4-6-8---10-|

Repeat all X 1 ( skip the intro )
Comments