Flamingos - Salt Shaker Chords & Tabs

 

Salt Shaker Chords & Tabs

Flamingos Chords & Tabs

Version: 1 Type: Bass Tab 0 ratings
1 star 2 stars 3 stars 4 stars 5 stars
comments

Salt Shaker Bass Tab

   
Tabbed By:Tom Winger
Song Name: Salt Shaker-The Flamingos
to Contact: Enjoi800@hotmail.com


Intro(10x)
G----------------------------------------|
D------------------------0-0/2-2-4/5\4---|
A--0-0--4-4/5-5--4-4\2-2-----------------|
E----------------------------------------|

Chorus(4x)
G---------------------------------------------|
D-----------------------------------22222222--|
A-00000000---555555555---22222222-------------|
E---------------------------------------------|

Verse(8x)
G----------------------------------------|
D------------------------0-0/2-2-4/5\4---|
A--0-0--4-4/5-5--4-4\2-2-----------------|
E----------------------------------------|
[ Tab from: http://www.guitartabs.cc/tabs/f/flamingos/salt_shaker_btab.html ]
Chorus(4x)
G---------------------------------------------|
D-----------------------------------22222222--|
A-00000000---555555555---22222222-------------|
E---------------------------------------------|

Bridge(6x)
G----------------------------------------------------------------------|
D----------------------------------------------------------------------|
A-0000000000000000-2222222222222222-4444444444444444-22222222-55555555-|
E----------------------------------------------------------------------|

Chorus(4x)
G---------------------------------------------|
D-----------------------------------22222222--|
A-00000000---555555555---22222222-------------|
E---------------------------------------------|

Ending(3)
G----------------------------------------|
D------------------------0-0/2-2-4/5\4-6-|
A--0-0--4-4/5-5--4-4\2-2-----------------|
E----------------------------------------|

End on: (Let Ring)
G--------------|
D--------------|
A--7-----------|
E--------------|

| /  slide up
| \  slide down
Comments