Flaming Spounge - Jays Freestyle Chords & Tabs

 

Jays Freestyle Chords & Tabs

Flaming Spounge Chords & Tabs

Version: 1 Type: Tab 0 ratings
1 star 2 stars 3 stars 4 stars 5 stars
comments

Jays Freestyle Tab

   
Jays Freestyle(tecno formate)
Written by:Owen Baker
Played By: Flaming Spounge

Tuning:

E:-
B:-
B:-
D:-
A:-
A:-
________________________________

E:------------------------------
B:-0-0-0-2-3-3-3-7-5-5-5-7-3-2-0
B:-0-0-0-2-3-3-3-7-5-5-5-7-3-2-0

[ Tab from: http://www.guitartabs.cc/tabs/f/flaming_spounge/jays_freestyle_tab.html ]
E:------------------------------
B:-0-0-0-2-3-3-3-7-5-5-5-7-3-2-0
B:-0-0-0-2-3-3-3-7-5-5-5-7-3-2-0


D:------------------------------
A:-0-0-0-2-3-3-3-7-5-5-5-7-3-2-0
A:-0-0-0-2-3-3-3-7-5-5-5-7-3-2-0


D:------------------------------
A:-0-0-0-2-3-3-3-7-5-5-5-7-3-2-0
A:-0-0-0-2-3-3-3-7-5-5-5-7-3-2-0
Comments