Flaming Spounge - Jays Free Style Chords & Tabs

 

Jays Free Style Chords & Tabs

Flaming Spounge Chords & Tabs

Version: 2 Type: Bass Tab 0 ratings
1 star 2 stars 3 stars 4 stars 5 stars
comments

Jays Free Style Bass Tab

Jay's Freestyle(BASS)
Written By: Owen Baker
Played By: Flaming Spounge

-|-0-2---------------------0-2-|
-|-----0-2-----0-2-----0-2-----|
-|---------0-2-----0-2---------|
-|-----------------------------|

-|-0-2---------------------0-2-|
-|-----0-2-----0-2-----0-2-----|
-|---------0-2-----0-2---------|
-|-----------------------------|
[ Tab from: http://www.guitartabs.cc/tabs/f/flaming_spounge/jays_free_style_btab_ver_2.html ]
-|-0-2---------------------0-2-|
-|-----0-2-----0-2-----0-2-----|
-|---------0-2-----0-2---------|
-|-----------------------------|

-|-0-2---------------------0-2-|
-|-----0-2-----0-2-----0-2-----|
-|---------0-2-----0-2---------|
-|-----------------------------|

-|-0-2---------------------0-2-|
-|-----0-2-----0-2-----0-2-----|
-|---------0-2-----0-2---------|
-|-----------------------------|
Comments