Flaming Lips - She Dont Use Jelly Chords & Tabs

 

She Dont Use Jelly Chords & Tabs

Flaming Lips Chords & Tabs

Version: 1 Type: Bass Tab 0 ratings
1 star 2 stars 3 stars 4 stars 5 stars
comments

She Dont Use Jelly Bass Tab

She Don't Use Jelly
Flaming Lips 
Nick Key

Chorus/Intro
-----------------------
-----------------------
-5-55------------------
------333-5-5-33-55-3--
[ Tab from: http://www.guitartabs.cc/tabs/f/flaming_lips/she_dont_use_jelly_btab.html ]
Verse: (quietly)
--------------------------
--------------------------
-5--3--5--3--5--3---------
-------------------3--5---

Chorus:
--------------------------------
---------------------5-55-5-55--
-5-55-5-55-7-77-7-77------------
--------------------------------

End on A

Comments