Fixture - Fixations Chords & Tabs

 

Fixations Chords & Tabs

Fixture Chords & Tabs

Version: 2 Type: Bass Tab 0 ratings
1 star 2 stars 3 stars 4 stars 5 stars
comments

Fixations Bass Tab

Here is fixations by rochester, ny's local band Fixture.
Subject: Bass tab 
Song: Fixations
Group: Fixture
Album: Self-Titled
Tabbed by Erik Horton


Riff 1:

                                     (x4)
G|------------------------------------||
D|------------------------------------*|
A|------------------------------------*|
E|-0-0-0-0-0-0-0-0-0-0-0-0-0-0-1------||

Riff 2:

G|----------------------------------------|
D|----------------------------------------|
A|-0----2----3----7-----------------------|
E|----------------------------------------|

G|----------------------------------------|
D|----------------------------------------|
A|----------------------------------------|
E|-0-0-0-0-3-0-0-5----0-0-0-3-0-0-5-------|
[ Tab from: http://www.guitartabs.cc/tabs/f/fixture/fixations_btab_ver_2.html ]
G|----------------------------------------|
D|----------------------------------------|
A|----------------------------------------|
E|-0-0-0-3-0-0-5----0-0-0-8-7-------------|

G|----------------------------------------|
D|----------------------------------------|
A|-0----2----3----7-----------------------|
E|----------------------------------------|

G|----------------------------------------|
D|----------------------------------------|
A|-0-0-0-0-5-0-0-7----0-0-0-5-0-0-7-------|
E|----------------------------------------|

G|----------------------------------------|
D|----------------------------------------|
A|-0-0-0-5-0-0-7----0-0-0-10-9------------|
E|----------------------------------------|

Riff 3(During Solo):

G|----------------------------------------|
D|----------------------------------------|
A|-0----2----3----7-----------------------|
E|----------------------------------------|

Order of Riffs:

Rest(Guitar Intro)
Riff 1
Riff 2
Riff 1
Riff 2
Riff 1
Riff 3
Riff 1
Comments