Fixture - Evolute Chords & Tabs

 

Evolute Chords & Tabs

Fixture Chords & Tabs

Version: 1 Type: Bass Tab 0 ratings
1 star 2 stars 3 stars 4 stars 5 stars
comments

Evolute Bass Tab

Here's the great song evolute by fixture from their album unhinged.
Subject: Bass tab 
Song: Evolute
Group: Fixture
Album: Unhinged
Tabbed by Erik Horton

Riff 1

G|-------------------------------||
D|-------------------------------*|
A|-------------------------------*|
E|-0-0-0-0-0-0-0-0-0-0-0-0-0-0---||

Riff 2

G|----------------------------------------------|
D|----------------------------------------0-3---|
A|---------------0-2-3------------------0-------|
E|-5-0-0-4-0-4-0----------5-0-0-4-0-4-0---------|

G|-------------------------------||
D|-------------------------------*|
A|---------------0-2-3-----5-----*|
E|-5-0-0-4-0-4-0---------5---0---||

Riff 3

G|-----------------------------------------|
D|-----------------------------------------|
A|-------------------------1h2p1--1h2p1----|
E|-0-0-0-0-0-0-0-0-1-1-1-1-----------------|
[ Tab from: http://www.guitartabs.cc/tabs/f/fixture/evolute_btab.html ]
G|----------------------------------------|
D|----------------------------------------|
A|----------------------------------------|
E|-0-0-0-0-0-0-0-0-1-1-1-1-1h2p1--1h2p1---|

G|-------------------------------------------------------------------||
D|-------------------------2-3-4-3-----------------------------------*|
A|-------------------------------------------------------------------*|
E|-0-0-0-0-0-0-0-0-1-1-1-1----------0-0-0-0-0-0-0-0-1-1-1-1-2-3-2-1--||

Riff 4

G|--------------------------------------------||
D|-------------------0---------------------0--*|
A|-0-0-0-----------------0-0-2h3p2-0----------*|
E|-------3-3-3-1-1-3-----------------1-1-3----||

Riff 5(during solo)

G|----------------------------------------|
D|----------------------------------0-3---|
A|-------------0-2-3--------------0-------|
E|-5-0-4-0-4-0--------5-0-4-0-4-0---------|

G|-----------------------------------||
D|-----------------------------------*|
A|-------------0-2-3-------------5---*|
E|-5-0-4-0-4-0-------5-0-4-0-4-0-----||

--

Comments