Fixture - Europium Chords & Tabs

 

Europium Chords & Tabs

Fixture Chords & Tabs

Version: 1 Type: Bass Tab 0 ratings
1 star 2 stars 3 stars 4 stars 5 stars
comments

Europium Bass Tab

Here is Europium by Fixture off of their as yet unreleased album, "Deeper
Down"
Author/Artist: Fixture
Title: Europium
Album: Deeper Down
Transcribed by: Michael Lund
Email: EdgeofDead@aol.com
[ Tab from: http://www.guitartabs.cc/tabs/f/fixture/europium_btab.html ]
Riff1
|--------------------|
|--------------------| x 5
|--------------------|
|0----6-5----6-5-6/10|
Riff2                                                                              
|-----------------------------------------------------------------|
|-----------------------------------------------------------------|
|----------------------------------------------------------------5|
|0000-3-0-5-6-5-3-0000-3-0-5-6-5-3-0000-3-0-5-6-5-3-0000-3-0-5-0--|
Riff3                                                                              
|---------------------------------------------------------------------------|
|---------------------------------------------------------------------------|
|----------------------------------------------------------------------5-5-5|
|0---0---5-6---0---0---0---5-6---0---0---0---5-6---0---0---0---5-6-0-0------|
Riff4                                                                              
|-----------------------|
|-----------------------| x 9
|----5-----7-----8-----7|
|0-3---0-5---0-6---0-5--|
Riff5                                                                              
|---------------------------|--------------------------|
|---------------------------|--------------------------|
|---------------------------|-------------------------5|
|0----0--5-6--0----0--5-6--0|0----0--5-6--0----0--5-6--|
Riff6                                                                              
|--------------0-2---------------0-2---------------0-2---------------5-4|
|----------3-0---------------3-0---------------3-0---------------3-0----|
|0-2h3p2-0---------0-2h3p2-0---------0-2h3p2-0---------0-2h3p2-0--------|
|-----------------------------------------------------------------------|                                                                             

Comments