Five Times August - Up To Me Chords & Tabs

 

Up To Me Chords & Tabs

Five Times August Chords & Tabs

Version: 2 Type: Tab

Up To Me Tab

   
Five Times August
Up To Me
Acoustic Sessions

Its a good song, and no one tabbed it, so i took it upon myself to do it.
Im not tabbing out the solo part, its bascially just a jam. Just mess around with the 
part and itll sound good

CAPO II - Standard Tuning

everything is tabbed relative to the capo

Intro/Verse (most of the song)

e--------------------------------------|
b--------0-------0-----------0-------0-|
g------3-------3-----------3---3---3---|
d----4-------4-----------4-------4-----|
a--------------------------------------|
E-0--------2----------4----------------|
           ^          ^
         Thumb    Thumb/Pinky (whichever you prefer)

Then when it goes "you dont desire me" it goes:

e----------------------------2-------2-2-2-2-|
b--------0-------0-----------0-------0-0-0-0-|
g------3-------3-----------3-----3-3-3-3-3-3-|
d----4-------4-----------4-------4-4-4-4-4-4-|
a--------------------------------------------|
E-0--------2----------4----------------------|

the chorus is:
[ Tab from: http://www.guitartabs.cc/tabs/f/five_times_august/up_to_me_tab_ver_2.html ]
e---------------------------------------------------------------------------|
b---------------------------------------------------------------------------|
g-4444-333-4444-333--4444-333-4444-333--4444-333-4444--333-4444-333-4444----|
d-4444-444-4444-444--4444-444-4444-444--4444-444-4444--444-4444-444-4444----|
a-2222-222-2222-222--4444-444-4444-444--xxxx-xxx-xxxx--xxx-2222-222-2222----|
E---------------------------------------4444-444-4444--444------------------|

e-222222
b-000000
g-333333      all this x2
d-444444
a-444444
E-------

then back to intro/verse part

then chorus

then the bridge part (its up to me...its up to me...and im still falling)

e-------x-------x-------x-------x-------x-------x-------x-------|
b-------x-------x-------x-------x-------x-------x-------x-------|
g-3-4-4-x-3-4-4-x-4-3-3-x-4-3-3-x-4-3-3-x-4-3-3-x-4-3-3-x-4-3-3-|
d-4-4-4-x-4-4-4-x-4-4-4-x-4-4-4-x-4-4-4-x-4-4-4-x-4-4-4-x-4-4-4-|
a-x-x-x-x-x-x-x-x-4-4-4-x-4-4-4-x-2-2-2-x-2-2-2-x-2-2-2-x-2-2-2-|
E-4-4-4-x-4-4-4-x-------x-------x-------x-------x-------x-------|

then back to the intro/verse part
then chorus
then bridge

then the solo jam, its a fuse of the chorus and the bridge. just use some slapping of 
strings, the same chords, and throw that pinky on some higher strings everyonce and awhile 
itll be similar enough. no one will
really notice its that different.

Good luck, this should be at least 85-90% right. And since its the only one here, itll 
good enough for now

Peace