Five Iron Frenzy - Where Is Micha Chords & Tabs

 

Where Is Micha Chords & Tabs

Five Iron Frenzy Chords & Tabs

Version: 3 Type: Bass Tab 0 ratings
1 star 2 stars 3 stars 4 stars 5 stars
comments

Where Is Micha Bass Tab

-------------------------------------------------------------------------------
			     Where is Micha? - Five Iron Frenzy
-------------------------------------------------------------------------------

Tabbed By : Jacob Bartlett 
e-mail: acobjoe@subpatch.com

Tuning: Standard EADG

Intro (0:00)
G|-----------------------------------------------------|
D|-------------------------4---------------------4-7-4-|
A|-----2-5-5-3-2-----2-5-5---5-3-------0---2-3-5-------|
E|-3-3-----------3-3-------------0-1-2-----------------|

G|-----------------------------------------------------|
D|-------------------------4---------------------4-----|
A|-----2-5-5-3-2-----2-5-5---5-3-------0---2-3-5---5---|
E|-3-3-----------3-3-------------0-1-2-----------------|

Riff 1 (0:22)
G|-----------------------|------------------------------|
D|----------4-7-4---7-5--|---------2-2-5-2---4-7-4---7-5|
A|---rest-5-------5------|---2-3-5---------5-------5----|
E|-3---------------------|-3----------------------------| 2nd Half x3

Verse (0:39)
G|----------------------------------------------------------|
D|---2---2---2---2---2---2---2---2--------------------------|
A|-3---3---3---3---3---3---3---3------5-5---5-5---5-5---5-5-|
E|---------------------------------3-3---3-3---3-3---3-3----|

G|-----------------------------------|
D|---2---2---2---2---2---2---2---2---|
A|-3---3---3---3---3---3---3---3---5-|
E|-----------------------------------|

Chorus (0:53)
G|---------------------------------------------|
D|---------------------------------------------|
A|-5-3-2-0-----5-4-3---------------5-4-3-----5-|
E|---------3-3-------3-5-5-1-1-3-3-------3-5---|
[ Tab from: http://www.guitartabs.cc/tabs/f/five_iron_frenzy/where_is_micha_btab_ver_3.html ]
Riff 2 (1:12)
G|-------------------------------|
D|---------2-2-5-2---4-7-4---7-5-|
A|---2-3-5---------5-------5-----|
E|-3-----------------------------| x2

Verse (1:20)
G|--------------------------------------------------------|
D|---2---2---2---2---2---2---2---2------------------------|
A|-3---3---3---3---3---3---3---3------5-5---5-5---5-5---5-|
E|---------------------------------3-3---3-3---3-3---3-3--|

G|-----------------------------------|
D|---2---2---2---2---2---2---2---2---|
A|-3---3---3---3---3---3---3---3---5-|
E|-----------------------------------|

Chorus (1:35)
G|---------------------------------------------|
D|---------------------------------------------|
A|-5-3-2-0-----5-4-3---------------5-4-3-----5-|
E|---------3-3-------3-5-5-1-1-3-3-------3-5---|

Bridge (1:52)
G|-----------------------------------|
D|-----------------------------------|
A|-5-4-3-5-2-----5---5-4-3-5-2-------|
E|-----------3-5---------------3-5-1-|

Intro (2:10)
G|-----------------------------------------------------|
D|-------------------------4---------------------4-7-4-|
A|-----2-5-5-3-2-----2-5-5---5-3-------0---2-3-5-------|
E|-3-3-----------3-3-------------0-1-2-----------------|

G|-----------------------------------------------------|
D|-------------------------4---------------------4-----|
A|-----2-5-5-3-2-----2-5-5---5-3-------0---2-3-5---5---|
E|-3-3-----------3-3-------------0-1-2-----------------|

Chorus (2:26)
G|---------------------------------------|
D|---------------------------------------|
A|-----5-4-3---------------5-4-3-------5-|
E|-3-3-------3-5-5-1-1-3-3-------3-5-5---| x2

Riff 2 (2:43)
G|-------------------------------|
D|---------2-2-5-2---4-7-4---7-5-|
A|---2-3-5---------5-------5-----|
E|-3-----------------------------| x2
Comments