Five Iron Frenzy - Pre-ex-girlfriend Chords & Tabs

 

Pre-ex-girlfriend Chords & Tabs

Five Iron Frenzy Chords & Tabs

Version: 2 Type: Tab 0 ratings
1 star 2 stars 3 stars 4 stars 5 stars
comments

Pre-ex-girlfriend Tab

   
-------------------------------------------------------------------------------
			     Pre-ex Girlfriend - Five Iron Frenzy
-------------------------------------------------------------------------------
Tabbed by:Sam Carr


Tuning:Standard

Intro/Chorus:     			Bring in horns on 5th time
e|---------------------------------------------------------------------------|
B|---------------------------------------------------------------------------|
G|------------------7-7-7-10-10-10-------------------------------------------|x8
D|-10-10-10--8-8-8--7-7-7-10-10-10-------------------------------------------|
A|-10-10-10--8-8-8--5-5-5--8--8--8-------------------------------------------|
E|--8--8--8--6-6-6-----------------------------------------------------------|

Verse:
"She's so cool..."
e|---------------------------------------------------------------------------|
B|---------------------------------------------------------------------------|
G|---------------------------------------------------------------------------|
D|-10-10-10-10-10-10-10-10-10--7-7-7-7-7-7-7-7-7--7-7-7-7-7-7-7-7-7-5-5--3-3-|
A|-10-10-10-10-10-10-10-10-10--7-7-7-7-7-7-7-7-7--7-7-7-7-7-7-7-7-7-5-5--3-3-|
E|--8--8--8--8--8--8--8--8--8--5-5-5-5-5-5-5-5-5--4-4-4-4-4-4-4-4-4-3-3--1-1-|

"Genetical testing..."
e|---------------------------------------------------------------------------|
B|---------------------------------------------------------------------------|
G|-----------------------------7-7-7-7-7-7-7-7-7--------------------9-9-10-10|
D|-10-10-10-10-10-10-10-10-10--7-7-7-7-7-7-7-7-7--7-7-7-7-7-7-7-7-7-9-9-10-10|
A|-10-10-10-10-10-10-10-10-10--5-5-5-5-5-5-5-5-5--7-7-7-7-7-7-7-7-7-7-7--8--8|
E|--8--8--8--8--8--8--8--8--8---------------------5-5-5-5-5-5-5-5-5----------|
[ Tab from: http://www.guitartabs.cc/tabs/f/five_iron_frenzy/pre_ex_girlfriend_tab_ver_2.html ]
Pre-Chorus:
"She said she hated.."		    "We'll break up.."
e|---------------------------------------------------------------------------|
B|---------------------------------------------------------------------------|
G|-----------5-5-5------------5-5-5--------5-5-5--------5-5-5----------------|
D|-5-5-5-7-3-5-5-5--5-5-5-7-3-5-5-5--3-3-3-5-5-5--3-3-3-5-5-5----------------|
A|-5-5-5-7-3-3-3-3--5-5-5-7-3-3-3-3--3-3-3-3-3-3--3-3-3-3-3-3----------------|
E|-3-3-3-5-1--------3-3-3-5-1--------1-1-1--------1-1-1----------------------|
"Da-na-na-na..."
e|---------------------------------------------------------------------------|
B|---------------------------------------------------------------------------|
G|--7-7-7-7-7-7-7-7----------------------------------------------------------|
D|--7-7-7-7-7-7-7-7--5-5-5---------------------------------------------------|
A|--5-5-5-5-5-5-5-5--5-5-5---------------------------------------------------|
E|-------------------3-3-3---------------------------------------------------|

Chorus
Verse 2
Pre-Chorus
Bridge:
"Watch her on the floor..."
e|---------------------------------------------------------------------------|
B|---------------------------------------------------------------------------|
G|---------------------------------------------------------------------------|
D|--7-7-7--7-7-7--8-8-8--8-8-8--3-3-3--3-3-3--5-5-5--5-5-5-------------------|x4
A|--7-7-7--7-7-7--8-8-8--8-8-8--3-3-3--3-3-3--5-5-5--5-5-5-------------------|
E|--5-5-5--5-5-5--6-6-6--6-6-6--1-1-1--1-1-1--3-3-3--3-3-3-------------------|

Solo:
"Oh..um,hi..."
e|---------------------------------------------------------------------------|
B|---------------------------------------------------------------------------|
G|---------------------------------------------------------------------------|
D|---------------------------------------------------------------------------|
A|-------33-1-1-00-----------------------------------------------------------|x12
E|---01-3---------1-1--------------------------------------------------------|(maybe)

Chorus

End on C(3-5-5)

| /  slide up
| \  slide down
| h  hammer-on
| p  pull-off
| ~  vibrato
| +  harmonic
| x  Mute note
===============================================================================
Comments